  0
SECTION
  2
HEADER
  9
$ACADVER
  1
AC1018
  9
$ACADMAINTVER
 70
   104
  9
$DWGCODEPAGE
  3
ANSI_949
  9
$LASTSAVEDBY
  1
sip-comm
  9
$INSBASE
 10
0.0
 20
0.0
 30
0.0
  9
$EXTMIN
 10
818.3578917932219
 20
-513.9228446134473
 30
0.0
  9
$EXTMAX
 10
20874.82328573934
 20
5687.305419478375
 30
0.0
  9
$LIMMIN
 10
0.0
 20
0.0
  9
$LIMMAX
 10
420.0
 20
297.0
  9
$ORTHOMODE
 70
     0
  9
$REGENMODE
 70
     1
  9
$FILLMODE
 70
     1
  9
$QTEXTMODE
 70
     0
  9
$MIRRTEXT
 70
     0
  9
$LTSCALE
 40
1.0
  9
$ATTMODE
 70
     1
  9
$TEXTSIZE
 40
2.5
  9
$TRACEWID
 40
1.0
  9
$TEXTSTYLE
  7
Standard
  9
$CLAYER
  8
0
  9
$CELTYPE
  6
ByLayer
  9
$CECOLOR
 62
   256
  9
$CELTSCALE
 40
1.0
  9
$DISPSILH
 70
     0
  9
$DIMSCALE
 40
1.0
  9
$DIMASZ
 40
2.5
  9
$DIMEXO
 40
0.625
  9
$DIMDLI
 40
3.75
  9
$DIMRND
 40
0.0
  9
$DIMDLE
 40
0.0
  9
$DIMEXE
 40
1.25
  9
$DIMTP
 40
0.0
  9
$DIMTM
 40
0.0
  9
$DIMTXT
 40
2.5
  9
$DIMCEN
 40
2.5
  9
$DIMTSZ
 40
0.0
  9
$DIMTOL
 70
     0
  9
$DIMLIM
 70
     0
  9
$DIMTIH
 70
     0
  9
$DIMTOH
 70
     0
  9
$DIMSE1
 70
     0
  9
$DIMSE2
 70
     0
  9
$DIMTAD
 70
     1
  9
$DIMZIN
 70
     8
  9
$DIMBLK
  1

  9
$DIMASO
 70
     1
  9
$DIMSHO
 70
     1
  9
$DIMPOST
  1

  9
$DIMAPOST
  1

  9
$DIMALT
 70
     0
  9
$DIMALTD
 70
     3
  9
$DIMALTF
 40
0.03937007874016
  9
$DIMLFAC
 40
1.0
  9
$DIMTOFL
 70
     1
  9
$DIMTVP
 40
0.0
  9
$DIMTIX
 70
     0
  9
$DIMSOXD
 70
     0
  9
$DIMSAH
 70
     0
  9
$DIMBLK1
  1

  9
$DIMBLK2
  1

  9
$DIMSTYLE
  2
ISO-25
  9
$DIMCLRD
 70
     0
  9
$DIMCLRE
 70
     0
  9
$DIMCLRT
 70
     0
  9
$DIMTFAC
 40
1.0
  9
$DIMGAP
 40
0.625
  9
$DIMJUST
 70
     0
  9
$DIMSD1
 70
     0
  9
$DIMSD2
 70
     0
  9
$DIMTOLJ
 70
     0
  9
$DIMTZIN
 70
     8
  9
$DIMALTZ
 70
     0
  9
$DIMALTTZ
 70
     0
  9
$DIMUPT
 70
     0
  9
$DIMDEC
 70
     2
  9
$DIMTDEC
 70
     2
  9
$DIMALTU
 70
     2
  9
$DIMALTTD
 70
     3
  9
$DIMTXSTY
  7
Standard
  9
$DIMAUNIT
 70
     0
  9
$DIMADEC
 70
     0
  9
$DIMALTRND
 40
0.0
  9
$DIMAZIN
 70
     0
  9
$DIMDSEP
 70
    44
  9
$DIMATFIT
 70
     3
  9
$DIMFRAC
 70
     0
  9
$DIMLDRBLK
  1

  9
$DIMLUNIT
 70
     2
  9
$DIMLWD
 70
    -2
  9
$DIMLWE
 70
    -2
  9
$DIMTMOVE
 70
     0
  9
$LUNITS
 70
     2
  9
$LUPREC
 70
     4
  9
$SKETCHINC
 40
1.0
  9
$FILLETRAD
 40
50.0
  9
$AUNITS
 70
     0
  9
$AUPREC
 70
     0
  9
$MENU
  1
.
  9
$ELEVATION
 40
0.0
  9
$PELEVATION
 40
0.0
  9
$THICKNESS
 40
0.0
  9
$LIMCHECK
 70
     0
  9
$CHAMFERA
 40
0.0
  9
$CHAMFERB
 40
0.0
  9
$CHAMFERC
 40
0.0
  9
$CHAMFERD
 40
0.0
  9
$SKPOLY
 70
     0
  9
$TDCREATE
 40
2457464.972883172
  9
$TDUCREATE
 40
2457464.597883171
  9
$TDUPDATE
 40
2457490.764585267
  9
$TDUUPDATE
 40
2457490.389585267
  9
$TDINDWG
 40
0.2132728588
  9
$TDUSRTIMER
 40
0.2132716088
  9
$USRTIMER
 70
     1
  9
$ANGBASE
 50
0.0
  9
$ANGDIR
 70
     0
  9
$PDMODE
 70
     0
  9
$PDSIZE
 40
0.0
  9
$PLINEWID
 40
0.0
  9
$SPLFRAME
 70
     0
  9
$SPLINETYPE
 70
     6
  9
$SPLINESEGS
 70
     8
  9
$HANDSEED
  5
1450
  9
$SURFTAB1
 70
     6
  9
$SURFTAB2
 70
     6
  9
$SURFTYPE
 70
     6
  9
$SURFU
 70
     6
  9
$SURFV
 70
     6
  9
$UCSBASE
  2

  9
$UCSNAME
  2

  9
$UCSORG
 10
0.0
 20
0.0
 30
0.0
  9
$UCSXDIR
 10
1.0
 20
0.0
 30
0.0
  9
$UCSYDIR
 10
0.0
 20
1.0
 30
0.0
  9
$UCSORTHOREF
  2

  9
$UCSORTHOVIEW
 70
     0
  9
$UCSORGTOP
 10
0.0
 20
0.0
 30
0.0
  9
$UCSORGBOTTOM
 10
0.0
 20
0.0
 30
0.0
  9
$UCSORGLEFT
 10
0.0
 20
0.0
 30
0.0
  9
$UCSORGRIGHT
 10
0.0
 20
0.0
 30
0.0
  9
$UCSORGFRONT
 10
0.0
 20
0.0
 30
0.0
  9
$UCSORGBACK
 10
0.0
 20
0.0
 30
0.0
  9
$PUCSBASE
  2

  9
$PUCSNAME
  2

  9
$PUCSORG
 10
0.0
 20
0.0
 30
0.0
  9
$PUCSXDIR
 10
1.0
 20
0.0
 30
0.0
  9
$PUCSYDIR
 10
0.0
 20
1.0
 30
0.0
  9
$PUCSORTHOREF
  2

  9
$PUCSORTHOVIEW
 70
     0
  9
$PUCSORGTOP
 10
0.0
 20
0.0
 30
0.0
  9
$PUCSORGBOTTOM
 10
0.0
 20
0.0
 30
0.0
  9
$PUCSORGLEFT
 10
0.0
 20
0.0
 30
0.0
  9
$PUCSORGRIGHT
 10
0.0
 20
0.0
 30
0.0
  9
$PUCSORGFRONT
 10
0.0
 20
0.0
 30
0.0
  9
$PUCSORGBACK
 10
0.0
 20
0.0
 30
0.0
  9
$USERI1
 70
     0
  9
$USERI2
 70
     0
  9
$USERI3
 70
     0
  9
$USERI4
 70
     0
  9
$USERI5
 70
     0
  9
$USERR1
 40
0.0
  9
$USERR2
 40
0.0
  9
$USERR3
 40
0.0
  9
$USERR4
 40
0.0
  9
$USERR5
 40
0.0
  9
$WORLDVIEW
 70
     1
  9
$SHADEDGE
 70
     3
  9
$SHADEDIF
 70
    70
  9
$TILEMODE
 70
     1
  9
$MAXACTVP
 70
    64
  9
$PINSBASE
 10
0.0
 20
0.0
 30
0.0
  9
$PLIMCHECK
 70
     0
  9
$PEXTMIN
 10
0.0
 20
0.0
 30
0.0
  9
$PEXTMAX
 10
0.0
 20
0.0
 30
0.0
  9
$PLIMMIN
 10
0.0
 20
0.0
  9
$PLIMMAX
 10
12.0
 20
9.0
  9
$UNITMODE
 70
     0
  9
$VISRETAIN
 70
     1
  9
$PLINEGEN
 70
     0
  9
$PSLTSCALE
 70
     1
  9
$TREEDEPTH
 70
  3020
  9
$CMLSTYLE
  2
Standard
  9
$CMLJUST
 70
     0
  9
$CMLSCALE
 40
20.0
  9
$PROXYGRAPHICS
 70
     1
  9
$MEASUREMENT
 70
     1
  9
$CELWEIGHT
370
    -1
  9
$ENDCAPS
280
     0
  9
$JOINSTYLE
280
     0
  9
$LWDISPLAY
290
     0
  9
$INSUNITS
 70
     4
  9
$HYPERLINKBASE
  1

  9
$STYLESHEET
  1

  9
$XEDIT
290
     1
  9
$CEPSNTYPE
380
     0
  9
$PSTYLEMODE
290
     1
  9
$FINGERPRINTGUID
  2
{EAF19D92-A819-E545-BF54-13F852CE8EF4}
  9
$VERSIONGUID
  2
{41B79EF0-5B07-1546-B9BC-414612293BD5}
  9
$EXTNAMES
290
     1
  9
$PSVPSCALE
 40
0.0
  9
$OLESTARTUP
290
     0
  9
$SORTENTS
280
   127
  9
$INDEXCTL
280
     0
  9
$HIDETEXT
280
     1
  9
$XCLIPFRAME
290
     0
  9
$HALOGAP
280
     0
  9
$OBSCOLOR
 70
   257
  9
$OBSLTYPE
280
     0
  9
$INTERSECTIONDISPLAY
280
     0
  9
$INTERSECTIONCOLOR
 70
   257
  9
$DIMASSOC
280
     2
  9
$PROJECTNAME
  1

  0
ENDSEC
  0
SECTION
  2
CLASSES
  0
CLASS
  1
ACDBDICTIONARYWDFLT
  2
AcDbDictionaryWithDefault
  3
ObjectDBX Classes
 90
        0
 91
        1
280
     0
281
     0
  0
CLASS
  1
DICTIONARYVAR
  2
AcDbDictionaryVar
  3
ObjectDBX Classes
 90
        0
 91
       17
280
     0
281
     0
  0
CLASS
  1
TABLESTYLE
  2
AcDbTableStyle
  3
ObjectDBX Classes
 90
     4095
 91
        1
280
     0
281
     0
  0
CLASS
  1
MATERIAL
  2
AcDbMaterial
  3
ObjectDBX Classes
 90
     1153
 91
        3
280
     0
281
     0
  0
CLASS
  1
VISUALSTYLE
  2
AcDbVisualStyle
  3
ObjectDBX Classes
 90
     4095
 91
       24
280
     0
281
     0
  0
CLASS
  1
SCALE
  2
AcDbScale
  3
ObjectDBX Classes
 90
     1153
 91
       17
280
     0
281
     0
  0
CLASS
  1
MLEADERSTYLE
  2
AcDbMLeaderStyle
  3
ACDB_MLEADERSTYLE_CLASS
 90
     4095
 91
        2
280
     0
281
     0
  0
CLASS
  1
CELLSTYLEMAP
  2
AcDbCellStyleMap
  3
ObjectDBX Classes
 90
     1152
 91
        3
280
     0
281
     0
  0
CLASS
  1
EXACXREFPANELOBJECT
  2
ExAcXREFPanelObject
  3
EXAC_ESW
 90
     1025
 91
        0
280
     0
281
     0
  0
CLASS
  1
NPOCOLLECTION
  2
AcDbImpNonPersistentObjectsCollection
  3
ObjectDBX Classes
 90
     1153
 91
        1
280
     0
281
     0
  0
CLASS
  1
LAYER_INDEX
  2
AcDbLayerIndex
  3
ObjectDBX Classes
 90
        0
 91
        0
280
     0
281
     0
  0
CLASS
  1
SPATIAL_INDEX
  2
AcDbSpatialIndex
  3
ObjectDBX Classes
 90
        0
 91
        0
280
     0
281
     0
  0
CLASS
  1
IDBUFFER
  2
AcDbIdBuffer
  3
ObjectDBX Classes
 90
        0
 91
        0
280
     0
281
     0
  0
CLASS
  1
ACDBSECTIONVIEWSTYLE
  2
AcDbSectionViewStyle
  3
ObjectDBX Classes
 90
     1025
 91
        1
280
     0
281
     0
  0
CLASS
  1
ACDBDETAILVIEWSTYLE
  2
AcDbDetailViewStyle
  3
ObjectDBX Classes
 90
     1025
 91
        1
280
     0
281
     0
  0
CLASS
  1
SORTENTSTABLE
  2
AcDbSortentsTable
  3
ObjectDBX Classes
 90
        0
 91
       27
280
     0
281
     0
  0
CLASS
  1
SOLID_BACKGROUND
  2
AcDbSolidBackground
  3
SCENEOE
 90
     4095
 91
        0
280
     0
281
     0
  0
CLASS
  1
ACDBASSOCNETWORK
  2
AcDbAssocNetwork
  3
ObjectDBX Classes
 90
     1025
 91
        0
280
     0
281
     0
  0
CLASS
  1
ACDBASSOCVARIABLE
  2
AcDbAssocVariable
  3
ObjectDBX Classes
 90
     1025
 91
        0
280
     0
281
     0
  0
CLASS
  1
ACDBASSOCVALUEDEPENDENCY
  2
AcDbAssocValueDependency
  3
ObjectDBX Classes
 90
     1025
 91
        0
280
     0
281
     0
  0
CLASS
  1
ACDBASSOCDEPENDENCY
  2
AcDbAssocDependency
  3
ObjectDBX Classes
 90
     1025
 91
        0
280
     0
281
     0
  0
CLASS
  1
ASSOCDIMDEPENDENCYBODY
  2
AcDbAssocDimDependencyBody
  3
ObjectDBX Classes
 90
     1025
 91
        0
280
     0
281
     0
  0
CLASS
  1
ACDBASSOC2DCONSTRAINTGROUP
  2
AcDbAssoc2dConstraintGroup
  3
ObjectDBX Classes
 90
     1025
 91
        0
280
     0
281
     0
  0
CLASS
  1
ACDBASSOCGEOMDEPENDENCY
  2
AcDbAssocGeomDependency
  3
ObjectDBX Classes
 90
     1025
 91
        0
280
     0
281
     0
  0
ENDSEC
  0
SECTION
  2
TABLES
  0
TABLE
  2
VPORT
  5
8
330
0
100
AcDbSymbolTable
 70
     1
  0
VPORT
  5
EA
330
8
100
AcDbSymbolTableRecord
100
AcDbViewportTableRecord
  2
*Active
 70
     0
 10
0.0
 20
0.0
 11
1.0
 21
1.0
 12
-10284.89657476165
 22
5191.754086856486
 13
0.0
 23
0.0
 14
10.0
 24
10.0
 15
10.0
 25
10.0
 16
0.0
 26
0.0
 36
5838.241055899054
 17
12229.89864372518
 27
1202.608537801409
 37
0.0
 40
11210.02888210926
 41
1.35809987819732
 42
50.0
 43
0.0
 44
0.0
 50
0.0
 51
0.0
 71
     0
 72
  1000
 73
     1
 74
     3
 75
     0
 76
     0
 77
     0
 78
     0
281
     0
 65
     1
110
0.0
120
0.0
130
0.0
111
1.0
121
0.0
131
0.0
112
0.0
122
1.0
132
0.0
 79
     0
146
0.0
1001
ACAD_NAV_VCDISPLAY
1070
     3
  0
ENDTAB
  0
TABLE
  2
LTYPE
  5
5
330
0
100
AcDbSymbolTable
 70
     2
  0
LTYPE
  5
14
330
5
100
AcDbSymbolTableRecord
100
AcDbLinetypeTableRecord
  2
ByBlock
 70
     0
  3

 72
    65
 73
     0
 40
0.0
  0
LTYPE
  5
15
330
5
100
AcDbSymbolTableRecord
100
AcDbLinetypeTableRecord
  2
ByLayer
 70
     0
  3

 72
    65
 73
     0
 40
0.0
  0
LTYPE
  5
16
330
5
100
AcDbSymbolTableRecord
100
AcDbLinetypeTableRecord
  2
Continuous
 70
     0
  3
Solid line
 72
    65
 73
     0
 40
0.0
  0
ENDTAB
  0
TABLE
  2
LAYER
  5
2
102
{ACAD_XDICTIONARY
360
1FF
102
}
330
0
100
AcDbSymbolTable
 70
     2
  0
LAYER
  5
10
102
{ACAD_XDICTIONARY
360
13C
102
}
330
2
100
AcDbSymbolTableRecord
100
AcDbLayerTableRecord
  2
0
 70
     0
 62
     7
  6
Continuous
370
    -3
390
F
  0
LAYER
  5
D33
330
2
100
AcDbSymbolTableRecord
100
AcDbLayerTableRecord
  2
ADSK_CONSTRAINTS
 70
     0
 62
     7
  6
Continuous
370
    -3
390
F
  0
ENDTAB
  0
TABLE
  2
STYLE
  5
3
330
0
100
AcDbSymbolTable
 70
     2
  0
STYLE
  5
11
330
3
100
AcDbSymbolTableRecord
100
AcDbTextStyleTableRecord
  2
Standard
 70
     0
 40
0.0
 41
1.0
 50
0.0
 71
     0
 42
2.5
  3
Arial.ttf
  4

1001
ACAD
1000
Arial
1071
       34
  0
STYLE
  5
132
330
3
100
AcDbSymbolTableRecord
100
AcDbTextStyleTableRecord
  2
Annotative
 70
     0
 40
0.0
 41
1.0
 50
0.0
 71
     0
 42
2.5
  3
Arial.ttf
  4

1001
AcadAnnotative
1000
AnnotativeData
1002
{
1070
     1
1070
     1
1002
}
1001
ACAD
1000
Arial
1071
       34
  0
ENDTAB
  0
TABLE
  2
VIEW
  5
6
330
0
100
AcDbSymbolTable
 70
     2
  0
ENDTAB
  0
TABLE
  2
UCS
  5
7
330
0
100
AcDbSymbolTable
 70
     0
  0
ENDTAB
  0
TABLE
  2
APPID
  5
9
330
0
100
AcDbSymbolTable
 70
    12
  0
APPID
  5
12
330
9
100
AcDbSymbolTableRecord
100
AcDbRegAppTableRecord
  2
ACAD
 70
     0
  0
APPID
  5
9E
330
9
100
AcDbSymbolTableRecord
100
AcDbRegAppTableRecord
  2
ACAD_PSEXT
 70
     0
  0
APPID
  5
133
330
9
100
AcDbSymbolTableRecord
100
AcDbRegAppTableRecord
  2
AcadAnnoPO
 70
     0
  0
APPID
  5
134
330
9
100
AcDbSymbolTableRecord
100
AcDbRegAppTableRecord
  2
AcadAnnotative
 70
     0
  0
APPID
  5
135
330
9
100
AcDbSymbolTableRecord
100
AcDbRegAppTableRecord
  2
ACAD_DSTYLE_DIMJAG
 70
     0
  0
APPID
  5
136
330
9
100
AcDbSymbolTableRecord
100
AcDbRegAppTableRecord
  2
ACAD_DSTYLE_DIMTALN
 70
     0
  0
APPID
  5
165
330
9
100
AcDbSymbolTableRecord
100
AcDbRegAppTableRecord
  2
ACAD_MLEADERVER
 70
     0
  0
APPID
  5
217
330
9
100
AcDbSymbolTableRecord
100
AcDbRegAppTableRecord
  2
ACAD_NAV_VCDISPLAY
 70
     0
  0
APPID
  5
24C
330
9
100
AcDbSymbolTableRecord
100
AcDbRegAppTableRecord
  2
ACAD_EXEMPT_FROM_CAD_STANDARDS
 70
     0
  0
APPID
  5
D3A
330
9
100
AcDbSymbolTableRecord
100
AcDbRegAppTableRecord
  2
ACAD_DSTYLE_DIMINSPECT
 70
     0
  0
APPID
  5
D3B
330
9
100
AcDbSymbolTableRecord
100
AcDbRegAppTableRecord
  2
ACAD_DSTYLE_DIMJAG_POSITION
 70
     0
  0
APPID
  5
D41
330
9
100
AcDbSymbolTableRecord
100
AcDbRegAppTableRecord
  2
AcadAnnoMonitorAlertIconDisabled
 70
     0
  0
ENDTAB
  0
TABLE
  2
DIMSTYLE
  5
A
330
0
100
AcDbSymbolTable
 70
     4
100
AcDbDimStyleTable
 71
     2
340
27
340
137
  0
DIMSTYLE
105
1B0
330
A
100
AcDbSymbolTableRecord
100
AcDbDimStyleTableRecord
  2
Standard
 70
     0
340
11
  0
DIMSTYLE
105
137
330
A
100
AcDbSymbolTableRecord
100
AcDbDimStyleTableRecord
  2
Annotative
 70
     0
 40
0.0
 41
2.5
 42
0.625
 43
3.75
 44
1.25
 73
     0
 74
     0
 77
     1
 78
     8
140
2.5
141
2.5
143
0.03937007874016
147
0.625
171
     3
172
     1
271
     2
272
     2
274
     3
278
    44
283
     0
284
     8
340
11
1001
AcadAnnotative
1000
AnnotativeData
1002
{
1070
     1
1070
     1
1002
}
1001
ACAD_DSTYLE_DIMJAG
1070
   388
1040
1.5
1001
ACAD_DSTYLE_DIMTALN
1070
   392
1070
     0
  0
DIMSTYLE
105
27
330
A
100
AcDbSymbolTableRecord
100
AcDbDimStyleTableRecord
  2
ISO-25
 70
     0
 41
2.5
 42
0.625
 43
3.75
 44
1.25
 73
     0
 74
     0
 77
     1
 78
     8
140
2.5
141
2.5
143
0.03937007874016
147
0.625
171
     3
172
     1
271
     2
272
     2
274
     3
278
    44
283
     0
284
     8
340
11
  0
ENDTAB
  0
TABLE
  2
BLOCK_RECORD
  5
1
330
0
100
AcDbSymbolTable
 70
    29
  0
BLOCK_RECORD
  5
1F
102
{ACAD_XDICTIONARY
360
1CE
102
}
330
1
100
AcDbSymbolTableRecord
100
AcDbBlockTableRecord
  2
*Model_Space
340
22
  0
BLOCK_RECORD
  5
D2
330
1
100
AcDbSymbolTableRecord
100
AcDbBlockTableRecord
  2
*Paper_Space
340
D3
  0
BLOCK_RECORD
  5
D6
330
1
100
AcDbSymbolTableRecord
100
AcDbBlockTableRecord
  2
*Paper_Space0
340
D7
  0
BLOCK_RECORD
  5
359
102
{ACAD_XDICTIONARY
360
362
102
}
330
1
100
AcDbSymbolTableRecord
100
AcDbBlockTableRecord
  2
A$C43F334C6
340
0
1001
ACAD
1000
DesignCenter Data
1002
{
1070
     1
1070
     4
1002
}
  0
BLOCK_RECORD
  5
366
102
{ACAD_XDICTIONARY
360
36F
102
}
330
1
100
AcDbSymbolTableRecord
100
AcDbBlockTableRecord
  2
A$C77DDEA67
340
0
1001
ACAD
1000
DesignCenter Data
1002
{
1070
     1
1070
     4
1002
}
  0
BLOCK_RECORD
  5
389
102
{ACAD_XDICTIONARY
360
392
102
}
330
1
100
AcDbSymbolTableRecord
100
AcDbBlockTableRecord
  2
A$C69915061
340
0
1001
ACAD
1000
DesignCenter Data
1002
{
1070
     1
1070
     4
1002
}
  0
BLOCK_RECORD
  5
3AC
102
{ACAD_XDICTIONARY
360
3B5
102
}
330
1
100
AcDbSymbolTableRecord
100
AcDbBlockTableRecord
  2
A$C199579A9
340
0
1001
ACAD
1000
DesignCenter Data
1002
{
1070
     1
1070
     4
1002
}
  0
BLOCK_RECORD
  5
3C4
102
{ACAD_XDICTIONARY
360
3CE
102
}
330
1
100
AcDbSymbolTableRecord
100
AcDbBlockTableRecord
  2
A$C39F854C5
340
0
1001
ACAD
1000
DesignCenter Data
1002
{
1070
     1
1070
     4
1002
}
  0
BLOCK_RECORD
  5
3D7
102
{ACAD_XDICTIONARY
360
3E0
102
}
330
1
100
AcDbSymbolTableRecord
100
AcDbBlockTableRecord
  2
A$C2ADE79CA
340
0
1001
ACAD
1000
DesignCenter Data
1002
{
1070
     1
1070
     4
1002
}
  0
BLOCK_RECORD
  5
3EB
102
{ACAD_XDICTIONARY
360
3F4
102
}
330
1
100
AcDbSymbolTableRecord
100
AcDbBlockTableRecord
  2
A$C33BF78CE
340
0
1001
ACAD
1000
DesignCenter Data
1002
{
1070
     1
1070
     4
1002
}
  0
BLOCK_RECORD
  5
709
102
{ACAD_XDICTIONARY
360
70B
102
}
330
1
100
AcDbSymbolTableRecord
100
AcDbBlockTableRecord
  2
A$C55656EA8
340
0
1001
ACAD
1000
DesignCenter Data
1002
{
1070
     1
1070
     4
1002
}
  0
BLOCK_RECORD
  5
70F
102
{ACAD_XDICTIONARY
360
711
102
}
330
1
100
AcDbSymbolTableRecord
100
AcDbBlockTableRecord
  2
A$C5B64392B
340
0
1001
ACAD
1000
DesignCenter Data
1002
{
1070
     1
1070
     4
1002
}
  0
BLOCK_RECORD
  5
73C
102
{ACAD_XDICTIONARY
360
73E
102
}
330
1
100
AcDbSymbolTableRecord
100
AcDbBlockTableRecord
  2
A$C64BD5336
340
0
1001
ACAD
1000
DesignCenter Data
1002
{
1070
     1
1070
     4
1002
}
  0
BLOCK_RECORD
  5
742
102
{ACAD_XDICTIONARY
360
748
102
}
330
1
100
AcDbSymbolTableRecord
100
AcDbBlockTableRecord
  2
A$C20F35CFF
340
0
1001
ACAD
1000
DesignCenter Data
1002
{
1070
     1
1070
     4
1002
}
  0
BLOCK_RECORD
  5
759
102
{ACAD_XDICTIONARY
360
75B
102
}
330
1
100
AcDbSymbolTableRecord
100
AcDbBlockTableRecord
  2
A$C34136C96
340
0
1001
ACAD
1000
DesignCenter Data
1002
{
1070
     1
1070
     4
1002
}
  0
BLOCK_RECORD
  5
777
102
{ACAD_XDICTIONARY
360
779
102
}
330
1
100
AcDbSymbolTableRecord
100
AcDbBlockTableRecord
  2
A$C3801726C
340
0
1001
ACAD
1000
DesignCenter Data
1002
{
1070
     1
1070
     4
1002
}
  0
BLOCK_RECORD
  5
77D
102
{ACAD_XDICTIONARY
360
77F
102
}
330
1
100
AcDbSymbolTableRecord
100
AcDbBlockTableRecord
  2
A$C3E7F2D74
340
0
1001
ACAD
1000
DesignCenter Data
1002
{
1070
     1
1070
     4
1002
}
  0
BLOCK_RECORD
  5
79A
102
{ACAD_XDICTIONARY
360
79D
102
}
330
1
100
AcDbSymbolTableRecord
100
AcDbBlockTableRecord
  2
A$C43362C37
340
0
1001
ACAD
1000
DesignCenter Data
1002
{
1070
     1
1070
     4
1002
}
  0
BLOCK_RECORD
  5
7B5
102
{ACAD_XDICTIONARY
360
7B9
102
}
330
1
100
AcDbSymbolTableRecord
100
AcDbBlockTableRecord
  2
A$C5A3538FC
340
0
1001
ACAD
1000
DesignCenter Data
1002
{
1070
     1
1070
     4
1002
}
  0
BLOCK_RECORD
  5
7BD
102
{ACAD_XDICTIONARY
360
7C1
102
}
330
1
100
AcDbSymbolTableRecord
100
AcDbBlockTableRecord
  2
A$CDE45B1A9
340
0
1001
ACAD
1000
DesignCenter Data
1002
{
1070
     1
1070
     4
1002
}
  0
BLOCK_RECORD
  5
7D1
102
{ACAD_XDICTIONARY
360
7D7
102
}
330
1
100
AcDbSymbolTableRecord
100
AcDbBlockTableRecord
  2
A$CEB7F51CD
340
0
1001
ACAD
1000
DesignCenter Data
1002
{
1070
     1
1070
     4
1002
}
  0
BLOCK_RECORD
  5
98C
102
{ACAD_XDICTIONARY
360
995
102
}
330
1
100
AcDbSymbolTableRecord
100
AcDbBlockTableRecord
  2
A$C68F4B14C
340
0
1001
ACAD
1000
DesignCenter Data
1002
{
1070
     1
1070
     4
1002
}
  0
BLOCK_RECORD
  5
9B2
102
{ACAD_XDICTIONARY
360
9BC
102
}
330
1
100
AcDbSymbolTableRecord
100
AcDbBlockTableRecord
  2
A$C4E7049AF
340
0
1001
ACAD
1000
DesignCenter Data
1002
{
1070
     1
1070
     4
1002
}
  0
BLOCK_RECORD
  5
9F0
102
{ACAD_XDICTIONARY
360
9FA
102
}
330
1
100
AcDbSymbolTableRecord
100
AcDbBlockTableRecord
  2
A$C3EF37DA5
340
0
1001
ACAD
1000
DesignCenter Data
1002
{
1070
     1
1070
     4
1002
}
  0
BLOCK_RECORD
  5
A7A
102
{ACAD_XDICTIONARY
360
A83
102
}
330
1
100
AcDbSymbolTableRecord
100
AcDbBlockTableRecord
  2
A$C47942AE0
340
0
1001
ACAD
1000
DesignCenter Data
1002
{
1070
     1
1070
     4
1002
}
  0
BLOCK_RECORD
  5
CC9
102
{ACAD_XDICTIONARY
360
CCF
102
}
330
1
100
AcDbSymbolTableRecord
100
AcDbBlockTableRecord
  2
A$C6DDF7772
340
0
1001
ACAD
1000
DesignCenter Data
1002
{
1070
     1
1070
     4
1002
}
  0
BLOCK_RECORD
  5
D34
330
1
100
AcDbSymbolTableRecord
100
AcDbBlockTableRecord
  2
_ClosedBlank
340
0
  0
BLOCK_RECORD
  5
D68
102
{ACAD_XDICTIONARY
360
D6E
102
}
330
1
100
AcDbSymbolTableRecord
100
AcDbBlockTableRecord
  2
A$CB5536AE4
340
0
1001
ACAD
1000
DesignCenter Data
1002
{
1070
     1
1070
     4
1002
}
  0
BLOCK_RECORD
  5
D94
102
{ACAD_XDICTIONARY
360
D9A
102
}
330
1
100
AcDbSymbolTableRecord
100
AcDbBlockTableRecord
  2
A$C62BD7324
340
0
1001
ACAD
1000
DesignCenter Data
1002
{
1070
     1
1070
     4
1002
}
  0
BLOCK_RECORD
  5
DA8
102
{ACAD_XDICTIONARY
360
DAE
102
}
330
1
100
AcDbSymbolTableRecord
100
AcDbBlockTableRecord
  2
A$C1C8E4F5D
340
0
1001
ACAD
1000
DesignCenter Data
1002
{
1070
     1
1070
     4
1002
}
  0
ENDTAB
  0
ENDSEC
  0
SECTION
  2
BLOCKS
  0
BLOCK
  5
20
330
1F
100
AcDbEntity
  8
0
100
AcDbBlockBegin
  2
*Model_Space
 70
     0
 10
0.0
 20
0.0
 30
0.0
  3
*Model_Space
  1

  0
ENDBLK
  5
21
330
1F
100
AcDbEntity
  8
0
100
AcDbBlockEnd
  0
BLOCK
  5
D4
330
D2
100
AcDbEntity
 67
     1
  8
0
100
AcDbBlockBegin
  2
*Paper_Space
 70
     0
 10
0.0
 20
0.0
 30
0.0
  3
*Paper_Space
  1

  0
ENDBLK
  5
D5
330
D2
100
AcDbEntity
 67
     1
  8
0
100
AcDbBlockEnd
  0
BLOCK
  5
D8
330
D6
100
AcDbEntity
 67
     1
  8
0
100
AcDbBlockBegin
  2
*Paper_Space0
 70
     0
 10
0.0
 20
0.0
 30
0.0
  3
*Paper_Space0
  1

  0
ENDBLK
  5
D9
330
D6
100
AcDbEntity
 67
     1
  8
0
100
AcDbBlockEnd
  0
BLOCK
  5
364
330
359
100
AcDbEntity
  8
0
100
AcDbBlockBegin
  2
A$C43F334C6
 70
     0
 10
0.0
 20
0.0
 30
0.0
  3
A$C43F334C6
  1

  0
LWPOLYLINE
  5
35A
330
359
100
AcDbEntity
  8
0
100
AcDbPolyline
 90
        6
 70
     1
 43
0.0
 10
499.9999972048136
 20
1976.680773847333
 10
1303.258688880163
 20
1976.680773847333
 42
-0.4142135623730951
 10
2103.258688880162
 20
1176.680773847333
 10
2103.258688880162
 20
-0.000009533541288
 10
-0.0000027951864467
 20
-0.000009533541288
 10
-0.0000027951864467
 20
1476.680773847333
 42
-0.4142135623730951
  0
LINE
  5
35B
330
359
100
AcDbEntity
  8
0
100
AcDbLine
 10
-0.0000027951864467
 20
-0.000009533541288
 30
0.0
 11
-0.0000027951864467
 21
749.9999904664587
 31
0.0
  0
LINE
  5
35C
330
359
100
AcDbEntity
  8
0
100
AcDbLine
 10
-0.0000027951864467
 20
749.9999904664587
 30
0.0
 11
499.9999972048136
 21
749.9999904664587
 31
0.0
  0
LINE
  5
35D
330
359
100
AcDbEntity
  8
0
100
AcDbLine
 10
499.9999972048136
 20
749.9999904664587
 30
0.0
 11
499.9999972048136
 21
869.9999904664586
 31
0.0
  0
LINE
  5
35E
330
359
100
AcDbEntity
  8
0
100
AcDbLine
 10
499.9999972048136
 20
869.9999904664586
 30
0.0
 11
-0.0000027951864467
 21
869.9999904664586
 31
0.0
  0
LINE
  5
35F
330
359
100
AcDbEntity
  8
0
100
AcDbLine
 10
2103.258688880162
 20
758.3899014003459
 30
0.0
 11
1708.711488165883
 21
758.3899014003463
 31
0.0
  0
ARC
  5
360
330
359
100
AcDbEntity
  8
0
100
AcDbCircle
 10
1708.711488165883
 20
1558.389901400346
 30
0.0
 40
800.0
100
AcDbArc
 50
180.0
 51
270.0
  0
LINE
  5
361
330
359
100
AcDbEntity
  8
0
100
AcDbLine
 10
908.7114881658836
 20
1558.389901400346
 30
0.0
 11
908.7114881658836
 21
1976.680773847331
 31
0.0
  0
ENDBLK
  5
365
330
359
100
AcDbEntity
  8
0
100
AcDbBlockEnd
  0
BLOCK
  5
371
330
366
100
AcDbEntity
  8
0
100
AcDbBlockBegin
  2
A$C77DDEA67
 70
     0
 10
0.0
 20
0.0
 30
0.0
  3
A$C77DDEA67
  1

  0
LWPOLYLINE
  5
367
330
366
100
AcDbEntity
  8
0
100
AcDbPolyline
 90
        6
 70
     1
 43
0.0
 10
499.9999972048136
 20
1976.680773847333
 10
1303.258688880163
 20
1976.680773847333
 42
-0.4142135623730951
 10
2103.258688880162
 20
1176.680773847333
 10
2103.258688880162
 20
-0.000009533541288
 10
-0.0000027951864467
 20
-0.000009533541288
 10
-0.0000027951864467
 20
1476.680773847333
 42
-0.4142135623730951
  0
LINE
  5
368
330
366
100
AcDbEntity
  8
0
100
AcDbLine
 10
-0.0000027951864467
 20
-0.000009533541288
 30
0.0
 11
-0.0000027951864467
 21
749.9999904664587
 31
0.0
  0
LINE
  5
369
330
366
100
AcDbEntity
  8
0
100
AcDbLine
 10
-0.0000027951864467
 20
749.9999904664587
 30
0.0
 11
499.9999972048136
 21
749.9999904664587
 31
0.0
  0
LINE
  5
36A
330
366
100
AcDbEntity
  8
0
100
AcDbLine
 10
499.9999972048136
 20
749.9999904664587
 30
0.0
 11
499.9999972048136
 21
869.9999904664586
 31
0.0
  0
LINE
  5
36B
330
366
100
AcDbEntity
  8
0
100
AcDbLine
 10
499.9999972048136
 20
869.9999904664586
 30
0.0
 11
-0.0000027951864467
 21
869.9999904664586
 31
0.0
  0
LINE
  5
36C
330
366
100
AcDbEntity
  8
0
100
AcDbLine
 10
2103.258688880162
 20
758.3899014003459
 30
0.0
 11
1708.711488165883
 21
758.3899014003463
 31
0.0
  0
ARC
  5
36D
330
366
100
AcDbEntity
  8
0
100
AcDbCircle
 10
1708.711488165883
 20
1558.389901400346
 30
0.0
 40
800.0
100
AcDbArc
 50
180.0
 51
270.0
  0
LINE
  5
36E
330
366
100
AcDbEntity
  8
0
100
AcDbLine
 10
908.7114881658836
 20
1558.389901400346
 30
0.0
 11
908.7114881658836
 21
1976.680773847331
 31
0.0
  0
ENDBLK
  5
372
330
366
100
AcDbEntity
  8
0
100
AcDbBlockEnd
  0
BLOCK
  5
394
330
389
100
AcDbEntity
  8
0
100
AcDbBlockBegin
  2
A$C69915061
 70
     0
 10
0.0
 20
0.0
 30
0.0
  3
A$C69915061
  1

  0
LWPOLYLINE
  5
38A
330
389
100
AcDbEntity
  8
0
100
AcDbPolyline
 90
        6
 70
     1
 43
0.0
 10
499.9999972048136
 20
1976.680773847333
 10
1303.258688880163
 20
1976.680773847333
 42
-0.4142135623730951
 10
2103.258688880162
 20
1176.680773847333
 10
2103.258688880162
 20
-0.000009533541288
 10
-0.0000027951864467
 20
-0.000009533541288
 10
-0.0000027951864467
 20
1476.680773847333
 42
-0.4142135623730951
  0
LINE
  5
38B
330
389
100
AcDbEntity
  8
0
100
AcDbLine
 10
-0.0000027951864467
 20
-0.000009533541288
 30
0.0
 11
-0.0000027951864467
 21
749.9999904664587
 31
0.0
  0
LINE
  5
38C
330
389
100
AcDbEntity
  8
0
100
AcDbLine
 10
-0.0000027951864467
 20
749.9999904664587
 30
0.0
 11
499.9999972048136
 21
749.9999904664587
 31
0.0
  0
LINE
  5
38D
330
389
100
AcDbEntity
  8
0
100
AcDbLine
 10
499.9999972048136
 20
749.9999904664587
 30
0.0
 11
499.9999972048136
 21
869.9999904664586
 31
0.0
  0
LINE
  5
38E
330
389
100
AcDbEntity
  8
0
100
AcDbLine
 10
499.9999972048136
 20
869.9999904664586
 30
0.0
 11
-0.0000027951864467
 21
869.9999904664586
 31
0.0
  0
LINE
  5
38F
330
389
100
AcDbEntity
  8
0
100
AcDbLine
 10
2103.258688880162
 20
758.3899014003459
 30
0.0
 11
1708.711488165883
 21
758.3899014003463
 31
0.0
  0
ARC
  5
390
330
389
100
AcDbEntity
  8
0
100
AcDbCircle
 10
1708.711488165883
 20
1558.389901400346
 30
0.0
 40
800.0
100
AcDbArc
 50
180.0
 51
270.0
  0
LINE
  5
391
330
389
100
AcDbEntity
  8
0
100
AcDbLine
 10
908.7114881658836
 20
1558.389901400346
 30
0.0
 11
908.7114881658836
 21
1976.680773847331
 31
0.0
  0
ENDBLK
  5
395
330
389
100
AcDbEntity
  8
0
100
AcDbBlockEnd
  0
BLOCK
  5
3B7
330
3AC
100
AcDbEntity
  8
0
100
AcDbBlockBegin
  2
A$C199579A9
 70
     0
 10
0.0
 20
0.0
 30
0.0
  3
A$C199579A9
  1

  0
LWPOLYLINE
  5
3AD
330
3AC
100
AcDbEntity
  8
0
100
AcDbPolyline
 90
        6
 70
     1
 43
0.0
 10
500.0000112832093
 20
1976.680774565977
 10
1303.258702958559
 20
1976.680774565977
 42
-0.4142135623730951
 10
2103.258702958559
 20
1176.680774565977
 10
2103.258702958559
 20
-0.0000088148967734
 10
0.0000112832094601
 20
-0.0000088148967734
 10
0.0000112832094601
 20
1476.680774565977
 42
-0.4142135623730951
  0
LINE
  5
3AE
330
3AC
100
AcDbEntity
  8
0
100
AcDbLine
 10
0.0000112832094601
 20
-0.0000088148967734
 30
0.0
 11
0.0000112832094601
 21
749.9999911851033
 31
0.0
  0
LINE
  5
3AF
330
3AC
100
AcDbEntity
  8
0
100
AcDbLine
 10
0.0000112832094601
 20
749.9999911851033
 30
0.0
 11
500.0000112832093
 21
749.9999911851033
 31
0.0
  0
LINE
  5
3B0
330
3AC
100
AcDbEntity
  8
0
100
AcDbLine
 10
500.0000112832093
 20
749.9999911851033
 30
0.0
 11
500.0000112832093
 21
869.9999911851033
 31
0.0
  0
LINE
  5
3B1
330
3AC
100
AcDbEntity
  8
0
100
AcDbLine
 10
500.0000112832093
 20
869.9999911851033
 30
0.0
 11
0.0000112832094601
 21
869.9999911851033
 31
0.0
  0
LINE
  5
3B2
330
3AC
100
AcDbEntity
  8
0
100
AcDbLine
 10
2103.258702958559
 20
1017.263003324113
 30
0.0
 11
1914.90341173239
 21
1017.263003324113
 31
0.0
  0
ARC
  5
3B3
330
3AC
100
AcDbEntity
  8
0
100
AcDbCircle
 10
1914.90341173239
 20
1817.263003324113
 30
0.0
 40
800.0
100
AcDbArc
 50
180.0
 51
270.0
  0
LINE
  5
3B4
330
3AC
100
AcDbEntity
  8
0
100
AcDbLine
 10
1114.90341173239
 20
1817.263003324113
 30
0.0
 11
1114.90341173239
 21
1976.680774565977
 31
0.0
  0
ENDBLK
  5
3B8
330
3AC
100
AcDbEntity
  8
0
100
AcDbBlockEnd
  0
BLOCK
  5
3D0
330
3C4
100
AcDbEntity
  8
0
100
AcDbBlockBegin
  2
A$C39F854C5
 70
     0
 10
0.0
 20
0.0
 30
0.0
  3
A$C39F854C5
  1

  0
LWPOLYLINE
  5
3C5
330
3C4
100
AcDbEntity
  8
0
100
AcDbPolyline
 90
        6
 70
     1
 43
0.0
 10
500.0000079829406
 20
1976.680773847333
 10
1303.25869965829
 20
1976.680773847333
 42
-0.4142135623730951
 10
2103.25869965829
 20
1176.680773847333
 10
2103.25869965829
 20
-0.000009533541288
 10
0.0000079829405877
 20
-0.000009533541288
 10
0.0000079829405877
 20
1476.680773847333
 42
-0.4142135623730951
  0
LINE
  5
3C6
330
3C4
100
AcDbEntity
  8
0
100
AcDbLine
 10
0.0000079829405877
 20
-0.000009533541288
 30
0.0
 11
0.0000079829405877
 21
749.9999904664587
 31
0.0
  0
LINE
  5
3C7
330
3C4
100
AcDbEntity
  8
0
100
AcDbLine
 10
0.0000079829405877
 20
749.9999904664587
 30
0.0
 11
500.0000079829406
 21
749.9999904664587
 31
0.0
  0
LINE
  5
3C8
330
3C4
100
AcDbEntity
  8
0
100
AcDbLine
 10
500.0000079829406
 20
749.9999904664587
 30
0.0
 11
500.0000079829406
 21
869.9999904664586
 31
0.0
  0
LINE
  5
3C9
330
3C4
100
AcDbEntity
  8
0
100
AcDbLine
 10
500.0000079829406
 20
869.9999904664586
 30
0.0
 11
0.0000079829405877
 21
869.9999904664586
 31
0.0
  0
LINE
  5
3CA
330
3C4
100
AcDbEntity
  8
0
100
AcDbLine
 10
1906.080975652319
 20
981.9845566444412
 30
0.0
 11
2103.25869965829
 21
981.9845566444412
 31
0.0
  0
LINE
  5
3CB
330
3C4
100
AcDbEntity
  8
0
100
AcDbLine
 10
2103.25869965829
 20
842.4341497208297
 30
0.0
 11
1812.396143044476
 21
842.4341497208297
 31
0.0
  0
ARC
  5
3CC
330
3C4
100
AcDbEntity
  8
0
100
AcDbCircle
 10
1812.396143044476
 20
1642.434149720829
 30
0.0
 40
800.0
100
AcDbArc
 50
180.0
 51
270.0
  0
LINE
  5
3CD
330
3C4
100
AcDbEntity
  8
0
100
AcDbLine
 10
1012.396143044476
 20
1642.434149720829
 30
0.0
 11
1012.396143044476
 21
1976.680773847333
 31
0.0
  0
ENDBLK
  5
3D1
330
3C4
100
AcDbEntity
  8
0
100
AcDbBlockEnd
  0
BLOCK
  5
3E2
330
3D7
100
AcDbEntity
  8
0
100
AcDbBlockBegin
  2
A$C2ADE79CA
 70
     0
 10
0.0
 20
0.0
 30
0.0
  3
A$C2ADE79CA
  1

  0
LWPOLYLINE
  5
3D8
330
3D7
100
AcDbEntity
  8
0
100
AcDbPolyline
 90
        6
 70
     1
 43
0.0
 10
500.0000079829406
 20
1976.680773847333
 10
1303.25869965829
 20
1976.680773847333
 42
-0.4142135623730951
 10
2103.25869965829
 20
1176.680773847333
 10
2103.25869965829
 20
-0.000009533541288
 10
0.0000079829405877
 20
-0.000009533541288
 10
0.0000079829405877
 20
1476.680773847333
 42
-0.4142135623730951
  0
LINE
  5
3D9
330
3D7
100
AcDbEntity
  8
0
100
AcDbLine
 10
0.0000079829405877
 20
-0.000009533541288
 30
0.0
 11
0.0000079829405877
 21
749.9999904664587
 31
0.0
  0
LINE
  5
3DA
330
3D7
100
AcDbEntity
  8
0
100
AcDbLine
 10
0.0000079829405877
 20
749.9999904664587
 30
0.0
 11
500.0000079829406
 21
749.9999904664587
 31
0.0
  0
LINE
  5
3DB
330
3D7
100
AcDbEntity
  8
0
100
AcDbLine
 10
500.0000079829406
 20
749.9999904664587
 30
0.0
 11
500.0000079829406
 21
869.9999904664586
 31
0.0
  0
LINE
  5
3DC
330
3D7
100
AcDbEntity
  8
0
100
AcDbLine
 10
500.0000079829406
 20
869.9999904664586
 30
0.0
 11
0.0000079829405877
 21
869.9999904664586
 31
0.0
  0
LINE
  5
3DD
330
3D7
100
AcDbEntity
  8
0
100
AcDbLine
 10
2103.25869965829
 20
842.4341497208297
 30
0.0
 11
1812.396143044476
 21
842.4341497208297
 31
0.0
  0
ARC
  5
3DE
330
3D7
100
AcDbEntity
  8
0
100
AcDbCircle
 10
1812.396143044476
 20
1642.434149720829
 30
0.0
 40
800.0
100
AcDbArc
 50
180.0
 51
270.0
  0
LINE
  5
3DF
330
3D7
100
AcDbEntity
  8
0
100
AcDbLine
 10
1012.396143044476
 20
1642.434149720829
 30
0.0
 11
1012.396143044476
 21
1976.680773847333
 31
0.0
  0
ENDBLK
  5
3E3
330
3D7
100
AcDbEntity
  8
0
100
AcDbBlockEnd
  0
BLOCK
  5
3F6
330
3EB
100
AcDbEntity
  8
0
100
AcDbBlockBegin
  2
A$C33BF78CE
 70
     0
 10
0.0
 20
0.0
 30
0.0
  3
A$C33BF78CE
  1

  0
LWPOLYLINE
  5
3EC
330
3EB
100
AcDbEntity
  8
0
100
AcDbPolyline
 90
        6
 70
     1
 43
0.0
 10
500.0000079829406
 20
1976.680773847333
 10
1303.25869965829
 20
1976.680773847333
 42
-0.4142135623730951
 10
2103.25869965829
 20
1176.680773847333
 10
2103.25869965829
 20
-0.000009533541288
 10
0.0000079829405877
 20
-0.000009533541288
 10
0.0000079829405877
 20
1476.680773847333
 42
-0.4142135623730951
  0
LINE
  5
3ED
330
3EB
100
AcDbEntity
  8
0
100
AcDbLine
 10
0.0000079829405877
 20
-0.000009533541288
 30
0.0
 11
0.0000079829405877
 21
749.9999904664587
 31
0.0
  0
LINE
  5
3EE
330
3EB
100
AcDbEntity
  8
0
100
AcDbLine
 10
0.0000079829405877
 20
749.9999904664587
 30
0.0
 11
500.0000079829406
 21
749.9999904664587
 31
0.0
  0
LINE
  5
3EF
330
3EB
100
AcDbEntity
  8
0
100
AcDbLine
 10
500.0000079829406
 20
749.9999904664587
 30
0.0
 11
500.0000079829406
 21
869.9999904664586
 31
0.0
  0
LINE
  5
3F0
330
3EB
100
AcDbEntity
  8
0
100
AcDbLine
 10
500.0000079829406
 20
869.9999904664586
 30
0.0
 11
0.0000079829405877
 21
869.9999904664586
 31
0.0
  0
LINE
  5
3F1
330
3EB
100
AcDbEntity
  8
0
100
AcDbLine
 10
2103.25869965829
 20
958.1057694866904
 30
0.0
 11
1812.396143044476
 21
958.1057694866904
 31
0.0
  0
ARC
  5
3F2
330
3EB
100
AcDbEntity
  8
0
100
AcDbCircle
 10
1812.396143044476
 20
1758.10576948669
 30
0.0
 40
800.0
100
AcDbArc
 50
180.0
 51
270.0
  0
LINE
  5
3F3
330
3EB
100
AcDbEntity
  8
0
100
AcDbLine
 10
1012.396143044476
 20
1758.10576948669
 30
0.0
 11
1012.396143044476
 21
1976.680773847333
 31
0.0
  0
ENDBLK
  5
3F7
330
3EB
100
AcDbEntity
  8
0
100
AcDbBlockEnd
  0
BLOCK
  5
70D
330
709
100
AcDbEntity
  8
0
100
AcDbBlockBegin
  2
A$C55656EA8
 70
     0
 10
0.0
 20
0.0
 30
0.0
  3
A$C55656EA8
  1

  0
CIRCLE
  5
70A
330
709
100
AcDbEntity
  8
0
100
AcDbCircle
 10
5.000011026378841
 20
5.000029971211914
 30
0.0
 40
5.0
  0
ENDBLK
  5
70E
330
709
100
AcDbEntity
  8
0
100
AcDbBlockEnd
  0
BLOCK
  5
713
330
70F
100
AcDbEntity
  8
0
100
AcDbBlockBegin
  2
A$C5B64392B
 70
     0
 10
0.0
 20
0.0
 30
0.0
  3
A$C5B64392B
  1

  0
CIRCLE
  5
710
330
70F
100
AcDbEntity
  8
0
100
AcDbCircle
 10
5.000011026378841
 20
5.000029971211914
 30
0.0
 40
5.0
  0
ENDBLK
  5
714
330
70F
100
AcDbEntity
  8
0
100
AcDbBlockEnd
  0
BLOCK
  5
740
330
73C
100
AcDbEntity
  8
0
100
AcDbBlockBegin
  2
A$C64BD5336
 70
     0
 10
0.0
 20
0.0
 30
0.0
  3
A$C64BD5336
  1

  0
CIRCLE
  5
73D
330
73C
100
AcDbEntity
  8
0
100
AcDbCircle
 10
4.999969566893012
 20
5.000029846836696
 30
0.0
 40
5.0
  0
ENDBLK
  5
741
330
73C
100
AcDbEntity
  8
0
100
AcDbBlockEnd
  0
BLOCK
  5
74A
330
742
100
AcDbEntity
  8
0
100
AcDbBlockBegin
  2
A$C20F35CFF
 70
     0
 10
0.0
 20
0.0
 30
0.0
  3
A$C20F35CFF
  1

  0
LINE
  5
743
330
742
100
AcDbEntity
  8
0
100
AcDbLine
 10
3.000012280812143
 20
-0.0000001243752195
 30
0.0
 11
3.000012280812143
 21
493.9999998756245
 31
0.0
  0
LINE
  5
744
330
742
100
AcDbEntity
  8
0
100
AcDbLine
 10
3.000012280812143
 20
499.9999998756248
 30
0.0
 11
18.50001228081214
 21
499.9999998756248
 31
0.0
  0
LINE
  5
745
330
742
100
AcDbEntity
  8
0
100
AcDbLine
 10
18.50001228081214
 20
493.9999998756245
 30
0.0
 11
18.50001228081214
 21
-0.0000001243752195
 31
0.0
  0
ARC
  5
746
330
742
100
AcDbEntity
  8
0
100
AcDbCircle
 10
18.50001228081214
 20
496.9999998756247
 30
0.0
 40
3.0
100
AcDbArc
 50
270.0
 51
90.0
  0
ARC
  5
747
330
742
100
AcDbEntity
  8
0
100
AcDbCircle
 10
3.000012280812143
 20
496.9999998756247
 30
0.0
 40
3.0
100
AcDbArc
 50
90.0
 51
270.0
  0
ENDBLK
  5
74B
330
742
100
AcDbEntity
  8
0
100
AcDbBlockEnd
  0
BLOCK
  5
75D
330
759
100
AcDbEntity
  8
0
100
AcDbBlockBegin
  2
A$C34136C96
 70
     0
 10
0.0
 20
0.0
 30
0.0
  3
A$C34136C96
  1

  0
CIRCLE
  5
75A
330
759
100
AcDbEntity
  8
0
100
AcDbCircle
 10
3.000019125742028
 20
3.000012261487426
 30
0.0
 40
3.0
  0
ENDBLK
  5
75E
330
759
100
AcDbEntity
  8
0
100
AcDbBlockEnd
  0
BLOCK
  5
77B
330
777
100
AcDbEntity
  8
0
100
AcDbBlockBegin
  2
A$C3801726C
 70
     0
 10
0.0
 20
0.0
 30
0.0
  3
A$C3801726C
  1

  0
CIRCLE
  5
778
330
777
100
AcDbEntity
  8
0
100
AcDbCircle
 10
3.000001764010221
 20
2.999995730206136
 30
0.0
 40
3.0
  0
ENDBLK
  5
77C
330
777
100
AcDbEntity
  8
0
100
AcDbBlockEnd
  0
BLOCK
  5
781
330
77D
100
AcDbEntity
  8
0
100
AcDbBlockBegin
  2
A$C3E7F2D74
 70
     0
 10
0.0
 20
0.0
 30
0.0
  3
A$C3E7F2D74
  1

  0
CIRCLE
  5
77E
330
77D
100
AcDbEntity
  8
0
100
AcDbCircle
 10
2.999943023443393
 20
3.000012137112206
 30
0.0
 40
3.0
  0
ENDBLK
  5
782
330
77D
100
AcDbEntity
  8
0
100
AcDbBlockEnd
  0
BLOCK
  5
79F
330
79A
100
AcDbEntity
  8
0
100
AcDbBlockBegin
  2
A$C43362C37
 70
     0
 10
0.0
 20
0.0
 30
0.0
  3
A$C43362C37
  1

  0
LINE
  5
79B
330
79A
100
AcDbEntity
  8
0
100
AcDbLine
 10
0.0000507958318394
 20
0.0000285440182779
 30
0.0
 11
15.50005079583184
 21
0.0000285440182779
 31
0.0
  0
LINE
  5
79C
330
79A
100
AcDbEntity
  8
0
100
AcDbLine
 10
68.50005079583183
 20
0.0000285440182779
 30
0.0
 11
78.00005079583184
 21
0.0000285440182779
 31
0.0
  0
ENDBLK
  5
7A0
330
79A
100
AcDbEntity
  8
0
100
AcDbBlockEnd
  0
BLOCK
  5
7BB
330
7B5
100
AcDbEntity
  8
0
100
AcDbBlockBegin
  2
A$C5A3538FC
 70
     0
 10
0.0
 20
0.0
 30
0.0
  3
A$C5A3538FC
  1

  0
LINE
  5
7B6
330
7B5
100
AcDbEntity
  8
0
100
AcDbLine
 10
-0.0000116381270345
 20
15.50003458268475
 30
0.0
 11
299.999988361873
 21
15.50003458268475
 31
0.0
  0
LINE
  5
7B7
330
7B5
100
AcDbEntity
  8
0
100
AcDbLine
 10
299.999988361873
 20
15.50003458268475
 30
0.0
 11
299.999988361873
 21
0.0000345826847479
 31
0.0
  0
LINE
  5
7B8
330
7B5
100
AcDbEntity
  8
0
100
AcDbLine
 10
299.999988361873
 20
0.0000345826847479
 30
0.0
 11
-0.0000116381270345
 21
0.0000345826847479
 31
0.0
  0
ENDBLK
  5
7BC
330
7B5
100
AcDbEntity
  8
0
100
AcDbBlockEnd
  0
BLOCK
  5
7C3
330
7BD
100
AcDbEntity
  8
0
100
AcDbBlockBegin
  2
A$CDE45B1A9
 70
     0
 10
0.0
 20
0.0
 30
0.0
  3
A$CDE45B1A9
  1

  0
LINE
  5
7BE
330
7BD
100
AcDbEntity
  8
0
100
AcDbLine
 10
-0.0000116381270345
 20
15.50003458268475
 30
0.0
 11
299.999988361873
 21
15.50003458268475
 31
0.0
  0
LINE
  5
7BF
330
7BD
100
AcDbEntity
  8
0
100
AcDbLine
 10
299.999988361873
 20
15.50003458268475
 30
0.0
 11
299.999988361873
 21
0.0000345826847479
 31
0.0
  0
LINE
  5
7C0
330
7BD
100
AcDbEntity
  8
0
100
AcDbLine
 10
299.999988361873
 20
0.0000345826847479
 30
0.0
 11
-0.0000116381270345
 21
0.0000345826847479
 31
0.0
  0
ENDBLK
  5
7C4
330
7BD
100
AcDbEntity
  8
0
100
AcDbBlockEnd
  0
BLOCK
  5
7D9
330
7D1
100
AcDbEntity
  8
0
100
AcDbBlockBegin
  2
A$CEB7F51CD
 70
     0
 10
0.0
 20
0.0
 30
0.0
  3
A$CEB7F51CD
  1

  0
LWPOLYLINE
  5
7D2
330
7D1
100
AcDbEntity
  8
0
100
AcDbPolyline
 90
       14
 70
     0
 43
0.0
 10
739.2949272280239
 20
910.0000085892236
 10
739.2949272280218
 20
908.2492291881967
 42
0.2920606544520822
 10
710.3276982131492
 20
953.6102536991887
 42
0.1089701868172565
 10
499.999988361873
 20
1000.000008589224
 10
249.999988361873
 20
1000.000008589224
 42
0.4142135623730951
 10
-0.0000116381270345
 20
750.0000085892239
 10
-0.0000116381270345
 20
100.0000085892243
 42
0.4142135623730951
 10
99.99998836187296
 20
0.0000085892243078
 10
899.9999883618729
 20
0.0000085892243078
 42
0.4142135623730951
 10
999.9999883618727
 20
100.0000085892243
 10
999.9999883618727
 20
500.0000085892238
 42
0.1219791590380911
 10
942.2166270759399
 20
733.3333419225514
 42
0.2781792779259733
 10
897.9949632045418
 20
760.000008589219
 10
889.2949272280239
 20
760.0000085892237
  0
ARC
  5
7D3
330
7D1
100
AcDbEntity
  8
0
100
AcDbCircle
 10
889.2949272280239
 20
910.0000085892236
 30
0.0
 40
150.0
100
AcDbArc
 50
180.0
 51
270.0
  0
LINE
  5
7D4
330
7D1
100
AcDbEntity
  8
0
100
AcDbLine
 10
-0.0000232762540691
 20
750.0000431719086
 30
0.0
 11
299.9999767237459
 21
750.0000431719086
 31
0.0
  0
LINE
  5
7D5
330
7D1
100
AcDbEntity
  8
0
100
AcDbLine
 10
299.9999767237459
 20
750.0000431719086
 30
0.0
 11
299.9999767237459
 21
734.5000431719086
 31
0.0
  0
LINE
  5
7D6
330
7D1
100
AcDbEntity
  8
0
100
AcDbLine
 10
299.9999767237459
 20
734.5000431719086
 30
0.0
 11
-0.0000232762540691
 21
734.5000431719086
 31
0.0
  0
ENDBLK
  5
7DA
330
7D1
100
AcDbEntity
  8
0
100
AcDbBlockEnd
  0
BLOCK
  5
997
330
98C
100
AcDbEntity
  8
0
100
AcDbBlockBegin
  2
A$C68F4B14C
 70
     0
 10
0.0
 20
0.0
 30
0.0
  3
A$C68F4B14C
  1

  0
LINE
  5
98D
330
98C
100
AcDbEntity
  8
0
100
AcDbLine
 10
-0.0000431535886491
 20
299.9999614474941
 30
0.0
 11
-0.0000431535886491
 21
-0.0000385525058846
 31
0.0
  0
LINE
  5
98E
330
98C
100
AcDbEntity
  8
0
100
AcDbLine
 10
-0.0000431535886491
 20
299.9999614474941
 30
0.0
 11
15.49995684641135
 21
299.9999614474941
 31
0.0
  0
LINE
  5
98F
330
98C
100
AcDbEntity
  8
0
100
AcDbLine
 10
15.49995684641135
 20
299.9999614474941
 30
0.0
 11
15.49995684641135
 21
-0.0000385525058846
 31
0.0
  0
LINE
  5
990
330
98C
100
AcDbEntity
  8
0
100
AcDbLine
 10
599.9999568464129
 20
99.99996144749276
 30
0.0
 11
599.9999568464129
 21
-0.0000385525072488
 31
0.0
  0
LINE
  5
991
330
98C
100
AcDbEntity
  8
0
100
AcDbLine
 10
599.9999568464129
 20
-0.0000385525072488
 30
0.0
 11
599.9999568464129
 21
99.99996144749276
 31
0.0
  0
LINE
  5
992
330
98C
100
AcDbEntity
  8
0
100
AcDbLine
 10
599.9999568464129
 20
99.99996144749276
 30
0.0
 11
599.9999568464129
 21
199.9999614474926
 31
0.0
  0
LINE
  5
993
330
98C
100
AcDbEntity
  8
0
100
AcDbLine
 10
599.9999568464129
 20
199.9999614474926
 30
0.0
 11
584.4999568464129
 21
199.9999614474926
 31
0.0
  0
LINE
  5
994
330
98C
100
AcDbEntity
  8
0
100
AcDbLine
 10
584.4999568464129
 20
199.9999614474926
 30
0.0
 11
584.4999568464125
 21
-0.0000385525067941
 31
0.0
  0
ENDBLK
  5
998
330
98C
100
AcDbEntity
  8
0
100
AcDbBlockEnd
  0
BLOCK
  5
9BE
330
9B2
100
AcDbEntity
  8
0
100
AcDbBlockBegin
  2
A$C4E7049AF
 70
     0
 10
0.0
 20
0.0
 30
0.0
  3
A$C4E7049AF
  1

  0
LINE
  5
9B3
330
9B2
100
AcDbEntity
  8
0
100
AcDbLine
 10
199.9999883618725
 20
299.9999614474941
 30
0.0
 11
199.9999883618725
 21
-0.0000385525058846
 31
0.0
  0
LINE
  5
9B4
330
9B2
100
AcDbEntity
  8
0
100
AcDbLine
 10
199.9999883618725
 20
299.9999614474941
 30
0.0
 11
215.4999883618725
 21
299.9999614474941
 31
0.0
  0
LINE
  5
9B5
330
9B2
100
AcDbEntity
  8
0
100
AcDbLine
 10
215.4999883618725
 20
299.9999614474941
 30
0.0
 11
215.4999883618725
 21
-0.0000385525058846
 31
0.0
  0
LINE
  5
9B6
330
9B2
100
AcDbEntity
  8
0
100
AcDbLine
 10
799.9999883618741
 20
99.99996144749276
 30
0.0
 11
799.9999883618741
 21
-0.0000385525072488
 31
0.0
  0
LINE
  5
9B7
330
9B2
100
AcDbEntity
  8
0
100
AcDbLine
 10
799.9999883618741
 20
-0.0000385525072488
 30
0.0
 11
799.9999883618741
 21
99.99996144749276
 31
0.0
  0
LINE
  5
9B8
330
9B2
100
AcDbEntity
  8
0
100
AcDbLine
 10
799.9999883618741
 20
99.99996144749276
 30
0.0
 11
799.9999883618741
 21
199.9999614474926
 31
0.0
  0
LINE
  5
9B9
330
9B2
100
AcDbEntity
  8
0
100
AcDbLine
 10
799.9999883618741
 20
199.9999614474926
 30
0.0
 11
784.4999883618741
 21
199.9999614474926
 31
0.0
  0
LINE
  5
9BA
330
9B2
100
AcDbEntity
  8
0
100
AcDbLine
 10
784.4999883618741
 20
199.9999614474926
 30
0.0
 11
784.4999883618736
 21
-0.0000385525067941
 31
0.0
  0
LINE
  5
9BB
330
9B2
100
AcDbEntity
  8
0
100
AcDbLine
 10
-0.0000116381270345
 20
99.99996144749459
 30
0.0
 11
199.9999883618725
 21
99.99996144749459
 31
0.0
  0
ENDBLK
  5
9BF
330
9B2
100
AcDbEntity
  8
0
100
AcDbBlockEnd
  0
BLOCK
  5
9FC
330
9F0
100
AcDbEntity
  8
0
100
AcDbBlockBegin
  2
A$C3EF37DA5
 70
     0
 10
0.0
 20
0.0
 30
0.0
  3
A$C3EF37DA5
  1

  0
LINE
  5
9F1
330
9F0
100
AcDbEntity
  8
0
100
AcDbLine
 10
199.9999883618725
 20
299.9999614474941
 30
0.0
 11
199.9999883618725
 21
-0.0000385525058846
 31
0.0
  0
LINE
  5
9F2
330
9F0
100
AcDbEntity
  8
0
100
AcDbLine
 10
199.9999883618725
 20
299.9999614474941
 30
0.0
 11
215.4999883618725
 21
299.9999614474941
 31
0.0
  0
LINE
  5
9F3
330
9F0
100
AcDbEntity
  8
0
100
AcDbLine
 10
215.4999883618725
 20
299.9999614474941
 30
0.0
 11
215.4999883618725
 21
-0.0000385525058846
 31
0.0
  0
LINE
  5
9F4
330
9F0
100
AcDbEntity
  8
0
100
AcDbLine
 10
799.9999883618741
 20
99.99996144749276
 30
0.0
 11
799.9999883618741
 21
-0.0000385525072488
 31
0.0
  0
LINE
  5
9F5
330
9F0
100
AcDbEntity
  8
0
100
AcDbLine
 10
799.9999883618741
 20
-0.0000385525072488
 30
0.0
 11
799.9999883618741
 21
99.99996144749276
 31
0.0
  0
LINE
  5
9F6
330
9F0
100
AcDbEntity
  8
0
100
AcDbLine
 10
799.9999883618741
 20
99.99996144749276
 30
0.0
 11
799.9999883618741
 21
199.9999614474926
 31
0.0
  0
LINE
  5
9F7
330
9F0
100
AcDbEntity
  8
0
100
AcDbLine
 10
799.9999883618741
 20
199.9999614474926
 30
0.0
 11
784.4999883618741
 21
199.9999614474926
 31
0.0
  0
LINE
  5
9F8
330
9F0
100
AcDbEntity
  8
0
100
AcDbLine
 10
784.4999883618741
 20
199.9999614474926
 30
0.0
 11
784.4999883618736
 21
-0.0000385525067941
 31
0.0
  0
LINE
  5
9F9
330
9F0
100
AcDbEntity
  8
0
100
AcDbLine
 10
-0.0000116381270345
 20
99.99996144749459
 30
0.0
 11
199.9999883618725
 21
99.99996144749459
 31
0.0
  0
ENDBLK
  5
9FD
330
9F0
100
AcDbEntity
  8
0
100
AcDbBlockEnd
  0
BLOCK
  5
A85
330
A7A
100
AcDbEntity
  8
0
100
AcDbBlockBegin
  2
A$C47942AE0
 70
     0
 10
0.0
 20
0.0
 30
0.0
  3
A$C47942AE0
  1

  0
LINE
  5
A7B
330
A7A
100
AcDbEntity
  8
0
100
AcDbLine
 10
-0.0000431535886491
 20
299.9999614474941
 30
0.0
 11
-0.0000431535886491
 21
-0.0000385525058846
 31
0.0
  0
LINE
  5
A7C
330
A7A
100
AcDbEntity
  8
0
100
AcDbLine
 10
-0.0000431535886491
 20
299.9999614474941
 30
0.0
 11
15.49995684641135
 21
299.9999614474941
 31
0.0
  0
LINE
  5
A7D
330
A7A
100
AcDbEntity
  8
0
100
AcDbLine
 10
15.49995684641135
 20
299.9999614474941
 30
0.0
 11
15.49995684641135
 21
-0.0000385525058846
 31
0.0
  0
LINE
  5
A7E
330
A7A
100
AcDbEntity
  8
0
100
AcDbLine
 10
599.9999568464129
 20
99.99996144749276
 30
0.0
 11
599.9999568464129
 21
-0.0000385525072488
 31
0.0
  0
LINE
  5
A7F
330
A7A
100
AcDbEntity
  8
0
100
AcDbLine
 10
599.9999568464129
 20
-0.0000385525072488
 30
0.0
 11
599.9999568464129
 21
99.99996144749276
 31
0.0
  0
LINE
  5
A80
330
A7A
100
AcDbEntity
  8
0
100
AcDbLine
 10
599.9999568464129
 20
99.99996144749276
 30
0.0
 11
599.9999568464129
 21
199.9999614474926
 31
0.0
  0
LINE
  5
A81
330
A7A
100
AcDbEntity
  8
0
100
AcDbLine
 10
599.9999568464129
 20
199.9999614474926
 30
0.0
 11
584.4999568464129
 21
199.9999614474926
 31
0.0
  0
LINE
  5
A82
330
A7A
100
AcDbEntity
  8
0
100
AcDbLine
 10
584.4999568464129
 20
199.9999614474926
 30
0.0
 11
584.4999568464125
 21
-0.0000385525067941
 31
0.0
  0
ENDBLK
  5
A86
330
A7A
100
AcDbEntity
  8
0
100
AcDbBlockEnd
  0
BLOCK
  5
CD1
330
CC9
100
AcDbEntity
  8
0
100
AcDbBlockBegin
  2
A$C6DDF7772
 70
     0
 10
0.0
 20
0.0
 30
0.0
  3
A$C6DDF7772
  1

  0
LWPOLYLINE
  5
CCA
330
CC9
100
AcDbEntity
  8
0
100
AcDbPolyline
 90
        2
 70
     0
 43
0.0
 10
0.0
 20
190.403550691306
 10
294.0
 20
190.403550691306
  0
LINE
  5
CCB
330
CC9
100
AcDbEntity
  8
0
100
AcDbLine
 10
300.0
 20
190.403550691306
 30
0.0
 11
300.0
 21
174.903550691306
 31
0.0
  0
LWPOLYLINE
  5
CCC
330
CC9
100
AcDbEntity
  8
0
100
AcDbPolyline
 90
        2
 70
     0
 43
0.0
 10
294.0
 20
174.903550691306
 10
0.0
 20
174.903550691306
  0
ARC
  5
CCD
330
CC9
100
AcDbEntity
  8
0
100
AcDbCircle
 10
297.0
 20
190.403550691306
 30
0.0
 40
3.0
100
AcDbArc
 50
0.0
 51
180.0
  0
ARC
  5
CCE
330
CC9
100
AcDbEntity
  8
0
100
AcDbCircle
 10
297.0
 20
174.903550691306
 30
0.0
 40
3.0
100
AcDbArc
 50
180.0
 51
0.0
  0
ENDBLK
  5
CD2
330
CC9
100
AcDbEntity
  8
0
100
AcDbBlockEnd
  0
BLOCK
  5
D38
330
D34
100
AcDbEntity
  8
0
100
AcDbBlockBegin
  2
_ClosedBlank
 70
     0
 10
0.0
 20
0.0
 30
0.0
  3
_ClosedBlank
  1

  0
LINE
  5
D35
330
D34
100
AcDbEntity
  8
0
  6
ByBlock
 62
     0
370
    -2
100
AcDbLine
 10
-1.0
 20
0.1666666666666666
 30
0.0
 11
0.0
 21
0.0
 31
0.0
  0
LINE
  5
D36
330
D34
100
AcDbEntity
  8
0
  6
ByBlock
 62
     0
370
    -2
100
AcDbLine
 10
0.0
 20
0.0
 30
0.0
 11
-1.0
 21
-0.1666666666666666
 31
0.0
  0
LINE
  5
D37
330
D34
100
AcDbEntity
  8
0
  6
ByBlock
 62
     0
370
    -2
100
AcDbLine
 10
-1.0
 20
0.1666666666666666
 30
0.0
 11
-1.0
 21
-0.1666666666666666
 31
0.0
  0
ENDBLK
  5
D39
330
D34
100
AcDbEntity
  8
0
100
AcDbBlockEnd
  0
BLOCK
  5
D70
330
D68
100
AcDbEntity
  8
0
100
AcDbBlockBegin
  2
A$CB5536AE4
 70
     0
 10
0.0
 20
0.0
 30
0.0
  3
A$CB5536AE4
  1

  0
LINE
  5
D69
330
D68
100
AcDbEntity
  8
0
100
AcDbLine
 10
-15.5
 20
0.0
 30
0.0
 11
-15.5
 21
44.0
 31
0.0
  0
LINE
  5
D6A
330
D68
100
AcDbEntity
  8
0
100
AcDbLine
 10
-15.5
 20
50.0
 30
0.0
 11
0.0
 21
50.0
 31
0.0
  0
LINE
  5
D6B
330
D68
100
AcDbEntity
  8
0
100
AcDbLine
 10
0.0
 20
44.0
 30
0.0
 11
0.0
 21
0.0
 31
0.0
  0
ARC
  5
D6C
330
D68
100
AcDbEntity
  8
0
100
AcDbCircle
 10
-15.5
 20
47.0
 30
0.0
 40
3.0
100
AcDbArc
 50
90.0
 51
270.0
  0
ARC
  5
D6D
330
D68
100
AcDbEntity
  8
0
100
AcDbCircle
 10
0.0
 20
47.0
 30
0.0
 40
3.0
100
AcDbArc
 50
270.0
 51
90.0
  0
ENDBLK
  5
D71
330
D68
100
AcDbEntity
  8
0
100
AcDbBlockEnd
  0
BLOCK
  5
D9C
330
D94
100
AcDbEntity
  8
0
100
AcDbBlockBegin
  2
A$C62BD7324
 70
     0
 10
0.0
 20
0.0
 30
0.0
  3
A$C62BD7324
  1

  0
LINE
  5
D95
330
D94
100
AcDbEntity
  8
0
100
AcDbLine
 10
3.00001228081237
 20
0.0
 30
0.0
 11
3.00001228081237
 21
44.0
 31
0.0
  0
LINE
  5
D96
330
D94
100
AcDbEntity
  8
0
100
AcDbLine
 10
3.00001228081237
 20
50.0
 30
0.0
 11
18.50001228081237
 21
50.0
 31
0.0
  0
LINE
  5
D97
330
D94
100
AcDbEntity
  8
0
100
AcDbLine
 10
18.50001228081237
 20
44.0
 30
0.0
 11
18.50001228081237
 21
0.0
 31
0.0
  0
ARC
  5
D98
330
D94
100
AcDbEntity
  8
0
100
AcDbCircle
 10
3.00001228081237
 20
47.0
 30
0.0
 40
3.0
100
AcDbArc
 50
90.0
 51
270.0
  0
ARC
  5
D99
330
D94
100
AcDbEntity
  8
0
100
AcDbCircle
 10
18.50001228081237
 20
47.0
 30
0.0
 40
3.0
100
AcDbArc
 50
270.0
 51
90.0
  0
ENDBLK
  5
D9D
330
D94
100
AcDbEntity
  8
0
100
AcDbBlockEnd
  0
BLOCK
  5
DB0
330
DA8
100
AcDbEntity
  8
0
100
AcDbBlockBegin
  2
A$C1C8E4F5D
 70
     0
 10
0.0
 20
0.0
 30
0.0
  3
A$C1C8E4F5D
  1

  0
LINE
  5
DA9
330
DA8
100
AcDbEntity
  8
0
100
AcDbLine
 10
0.0
 20
0.0
 30
0.0
 11
0.0
 21
44.0
 31
0.0
  0
LINE
  5
DAA
330
DA8
100
AcDbEntity
  8
0
100
AcDbLine
 10
0.0
 20
50.0
 30
0.0
 11
15.5
 21
50.0
 31
0.0
  0
LINE
  5
DAB
330
DA8
100
AcDbEntity
  8
0
100
AcDbLine
 10
15.5
 20
44.0
 30
0.0
 11
15.5
 21
0.0
 31
0.0
  0
ARC
  5
DAC
330
DA8
100
AcDbEntity
  8
0
100
AcDbCircle
 10
0.0
 20
47.0
 30
0.0
 40
3.0
100
AcDbArc
 50
90.0
 51
270.0
  0
ARC
  5
DAD
330
DA8
100
AcDbEntity
  8
0
100
AcDbCircle
 10
15.5
 20
47.0
 30
0.0
 40
3.0
100
AcDbArc
 50
270.0
 51
90.0
  0
ENDBLK
  5
DB1
330
DA8
100
AcDbEntity
  8
0
100
AcDbBlockEnd
  0
ENDSEC
  0
SECTION
  2
ENTITIES
  0
LWPOLYLINE
  5
957
102
{ACAD_XDICTIONARY
360
144C
102
}
330
1F
100
AcDbEntity
  8
0
100
AcDbPolyline
 90
       26
 70
     1
 43
0.0
 10
1927.020984629306
 20
3750.998862694336
 10
2027.020984629306
 20
3750.998862694336
 42
0.4142135623730951
 10
2127.020984629305
 20
3850.998862694336
 10
2127.020984629305
 20
4250.998862694336
 42
0.4142135623730951
 10
1627.020984629305
 20
4750.998862694336
 10
1377.020984629305
 20
4750.998862694336
 42
0.4142135623730951
 10
1127.020984629305
 20
4500.998862694336
 10
1127.020984629305
 20
4366.402413385642
 10
1421.020984629305
 20
4366.402413385642
 42
-0.9999999999999998
 10
1427.020984629305
 20
4366.402413385642
 10
1427.020984629305
 20
4350.902413385642
 42
-0.9999999999999998
 10
1421.020984629305
 20
4350.902413385642
 10
1127.020984629305
 20
4350.902413385642
 10
1127.020984629305
 20
3850.998862694336
 42
0.4142135623730951
 10
1227.020984629305
 20
3750.998862694336
 10
1327.020984629305
 20
3750.998862694336
 10
1327.020984629305
 20
4044.998862694336
 42
-0.9999999999999998
 10
1327.020984629305
 20
4050.998862694336
 10
1342.520984629305
 20
4050.998862694336
 42
-0.9999999999999998
 10
1342.520984629305
 20
4044.998862694336
 10
1342.520984629305
 20
3750.998862694336
 10
1911.520984629306
 20
3750.998862694336
 10
1911.520984629306
 20
3944.998862694335
 42
-0.9999999999999998
 10
1911.520984629306
 20
3950.998862694335
 10
1927.020984629306
 20
3950.998862694335
 42
-0.9999999999999998
 10
1927.020984629306
 20
3944.998862694335
  0
LWPOLYLINE
  5
CD6
330
1F
100
AcDbEntity
  8
0
100
AcDbPolyline
 90
       32
 70
     1
 43
0.0
 10
3400.280542861866
 20
4510.99882414183
 42
-0.4142135623730951
 10
3250.280542861866
 20
4660.99882414183
 10
3250.280542861863
 20
4659.248044740803
 42
0.2920606544520822
 10
3221.31331384699
 20
4704.609069251795
 42
0.1089701868172565
 10
3010.985603995714
 20
4750.99882414183
 10
2760.985603995714
 20
4750.99882414183
 42
0.4142135623730951
 10
2510.985603995714
 20
4500.99882414183
 10
2510.985603995714
 20
4366.402374833135
 10
2804.985603995714
 20
4366.402374833135
 42
-0.9999999999999998
 10
2810.985603995714
 20
4366.402374833135
 10
2810.985603995714
 20
4350.902374833134
 42
-0.9999999999999998
 10
2804.985603995714
 20
4350.902374833134
 10
2510.985603995714
 20
4350.902374833134
 10
2510.985603995714
 20
3850.998824141831
 42
0.4142135623730951
 10
2610.985603995714
 20
3750.998824141831
 10
2710.985603995714
 20
3750.998824141831
 10
2710.985603995714
 20
4044.99882414183
 42
-0.9999999999999998
 10
2710.985603995714
 20
4050.998824141831
 10
2726.485603995714
 20
4050.99882414183
 42
-0.9999999999999998
 10
2726.485603995714
 20
4044.99882414183
 10
2726.485603995714
 20
3750.998824141831
 10
3295.485603995715
 20
3750.99882414183
 10
3295.485603995715
 20
3944.998824141829
 42
-0.9999999999999998
 10
3295.485603995715
 20
3950.998824141829
 10
3310.985603995715
 20
3950.998824141829
 42
-0.9999999999999998
 10
3310.985603995715
 20
3944.998824141829
 10
3310.985603995715
 20
3750.998824141831
 10
3410.985603995714
 20
3750.998824141831
 42
0.4142135623730951
 10
3510.985603995715
 20
3850.998824141831
 10
3510.985603995715
 20
4250.99882414183
 42
0.1219791590380911
 10
3453.202242709781
 20
4484.332157475158
 42
0.2781792779259733
 10
3408.980578838384
 20
4510.998824141824
  0
LWPOLYLINE
  5
CDC
330
1F
100
AcDbEntity
  8
0
100
AcDbPolyline
 90
       32
 70
     1
 43
0.0
 10
4626.890495362885
 20
4385.863971897459
 42
-0.4146232187671
 10
4376.54088252334
 20
4635.863727439065
 10
4376.540882523342
 20
4694.960495491881
 42
0.3669540540421649
 10
4334.704367919324
 20
4744.289569131973
 42
0.0410239732730274
 10
4253.06951395951
 20
4750.998832731055
 10
4003.06951395951
 20
4750.998832731055
 42
0.4142135623730951
 10
3753.06951395951
 20
4500.998832731055
 10
3753.06951395951
 20
4366.40238342236
 10
4047.06951395951
 20
4366.40238342236
 42
-0.9999999999999998
 10
4053.06951395951
 20
4366.40238342236
 10
4053.06951395951
 20
4350.902383422361
 42
-0.9999999999999998
 10
4047.06951395951
 20
4350.902383422361
 10
3753.06951395951
 20
4350.902383422361
 10
3753.06951395951
 20
3850.998832731055
 42
0.4142135623730951
 10
3853.069513959511
 20
3750.998832731055
 10
3953.069513959511
 20
3750.998832731055
 10
3953.069513959511
 20
4044.998832731056
 42
-0.9999999999999998
 10
3953.069513959511
 20
4050.998832731055
 10
3968.56951395951
 20
4050.998832731055
 42
-0.9999999999999998
 10
3968.56951395951
 20
4044.998832731056
 10
3968.56951395951
 20
3750.998832731055
 10
4537.56951395951
 20
3750.998832731054
 10
4537.56951395951
 20
3944.998832731054
 42
-0.9999999999999998
 10
4537.56951395951
 20
3950.998832731054
 10
4553.069513959511
 20
3950.998832731054
 42
-0.9999999999999998
 10
4553.069513959511
 20
3944.998832731054
 10
4553.069513959511
 20
3750.998832731055
 10
4653.06951395951
 20
3750.998832731055
 42
0.4142135623730951
 10
4753.06951395951
 20
3850.998832731055
 10
4753.06951395951
 20
4250.998832731055
 42
0.0475209019735091
 10
4744.077228726046
 20
4345.399171924006
 42
0.3600089632281006
 10
4694.906534681483
 20
4385.959089113032
  0
LWPOLYLINE
  5
CE2
330
1F
100
AcDbEntity
  8
0
100
AcDbPolyline
 90
       30
 70
     1
 43
0.0
 10
5798.23019708461
 20
3750.998849909504
 10
5898.230197084608
 20
3750.998849909504
 42
0.4142135623730951
 10
5998.230197084605
 20
3850.998849909504
 10
5998.230197084605
 20
4200.998849909511
 42
0.4142135623730792
 10
5948.23019708461
 20
4250.998849909509
 10
5848.230197084587
 20
4250.998849909509
 42
-0.41421356237308
 10
5498.230197084605
 20
4600.99884990951
 10
5498.230197084605
 20
4700.998849909503
 42
0.4142135623730951
 10
5448.230197084606
 20
4750.998849909503
 10
5248.230197084605
 20
4750.998849909503
 42
0.4142135623730951
 10
4998.230197084605
 20
4500.998849909503
 10
4998.230197084605
 20
4366.402400600811
 10
5292.230197084606
 20
4366.402400600811
 42
-0.9999999999999998
 10
5298.230197084606
 20
4366.402400600811
 10
5298.230197084606
 20
4350.902400600808
 42
-0.9999999999999998
 10
5292.230197084609
 20
4350.902400600808
 10
4998.230197084605
 20
4350.902400600808
 10
4998.230197084605
 20
3850.998849909504
 42
0.4142135623730951
 10
5098.230197084607
 20
3750.998849909504
 10
5198.230197084606
 20
3750.998849909504
 10
5198.230197084606
 20
4044.998849909503
 42
-0.9999999999999998
 10
5198.230197084606
 20
4050.998849909503
 10
5213.730197084608
 20
4050.998849909503
 42
-0.9999999999999998
 10
5213.730197084608
 20
4044.998849909503
 10
5213.730197084608
 20
3750.998849909504
 10
5782.730197084609
 20
3750.998849909502
 10
5782.730197084609
 20
3944.998849909502
 42
-0.9999999999999998
 10
5782.730197084609
 20
3950.998849909503
 10
5798.23019708461
 20
3950.998849909503
 42
-0.9999999999999998
 10
5798.23019708461
 20
3944.998849909502
  0
LWPOLYLINE
  5
CE8
330
1F
100
AcDbEntity
  8
0
100
AcDbPolyline
 90
       30
 70
     1
 43
0.0
 10
6897.192761227488
 20
4120.171293876683
 42
-0.4353011958066486
 10
6629.343643344042
 20
4369.53329778021
 10
6629.343643344042
 20
4700.998884266399
 42
0.4142135623730951
 10
6579.343643344042
 20
4750.9988842664
 10
6504.343643344042
 20
4750.9988842664
 42
0.4142135623730951
 10
6254.343643344042
 20
4500.9988842664
 10
6254.343643344042
 20
4366.402434957707
 10
6548.343643344042
 20
4366.402434957707
 42
-0.9999999999999998
 10
6554.343643344042
 20
4366.402434957707
 10
6554.343643344042
 20
4350.902434957706
 42
-0.9999999999999998
 10
6548.343643344042
 20
4350.902434957706
 10
6254.343643344042
 20
4350.902434957706
 10
6254.343643344042
 20
3850.998884266402
 42
0.4142135623730951
 10
6354.343643344042
 20
3750.998884266401
 10
6454.343643344042
 20
3750.998884266401
 10
6454.343643344042
 20
4044.998884266401
 42
-0.9999999999999998
 10
6454.343643344042
 20
4050.998884266401
 10
6469.843643344042
 20
4050.998884266401
 42
-0.9999999999999998
 10
6469.843643344042
 20
4044.998884266401
 10
6469.843643344042
 20
3750.998884266401
 10
7038.843643344043
 20
3750.9988842664
 10
7038.843643344043
 20
3944.998884266399
 42
-0.9999999999999998
 10
7038.843643344043
 20
3950.998884266399
 10
7054.343643344044
 20
3950.998884266399
 42
-0.9999999999999998
 10
7054.343643344044
 20
3944.998884266399
 10
7054.343643344044
 20
3750.998884266401
 10
7154.343643344041
 20
3750.998884266401
 42
0.4142135623730951
 10
7254.343643344042
 20
3850.998884266402
 10
7254.343643344042
 20
4092.028964302752
 42
0.4353011958066493
 10
7200.773819767353
 20
4141.901365083458
  0
LWPOLYLINE
  5
CEE
330
1F
100
AcDbEntity
  8
0
100
AcDbPolyline
 90
       30
 70
     1
 43
0.0
 10
8152.359561767218
 20
4117.471925529435
 42
-0.4353011958067589
 10
7884.510443883677
 20
4366.833929432956
 10
7884.510443883677
 20
4698.299515919146
 42
0.4142135623730951
 10
7834.510443883677
 20
4748.299515919145
 10
7759.510443883677
 20
4748.299515919145
 42
0.4142135623730951
 10
7509.510443883677
 20
4498.299515919145
 10
7509.510443883677
 20
4363.703066610453
 10
7803.510443883677
 20
4363.703066610453
 42
-0.9999999999999998
 10
7809.510443883677
 20
4363.703066610453
 10
7809.510443883677
 20
4348.203066610452
 42
-0.9999999999999998
 10
7803.510443883677
 20
4348.203066610452
 10
7509.510443883677
 20
4348.203066610452
 10
7509.510443883677
 20
3848.299515919148
 42
0.4142135623730951
 10
7609.510443883677
 20
3748.299515919149
 10
7709.510443883677
 20
3748.299515919147
 10
7709.510443883677
 20
4042.299515919146
 42
-0.9999999999999998
 10
7709.510443883677
 20
4048.299515919146
 10
7725.010443883677
 20
4048.299515919146
 42
-0.9999999999999998
 10
7725.010443883677
 20
4042.299515919147
 10
7725.010443883677
 20
3748.299515919149
 10
8294.010443883676
 20
3748.299515919146
 10
8294.010443883678
 20
3942.299515919145
 42
-0.9999999999999998
 10
8294.010443883678
 20
3948.299515919146
 10
8309.510443883679
 20
3948.299515919146
 42
-0.9999999999999998
 10
8309.510443883679
 20
3942.299515919146
 10
8309.510443883679
 20
3748.299515919149
 10
8409.510443883677
 20
3748.299515919149
 42
0.4142135623730951
 10
8509.510443883677
 20
3848.299515919148
 10
8509.510443883677
 20
4089.329595955498
 42
0.4353011958066493
 10
8455.940620306988
 20
4139.201996736203
  0
LWPOLYLINE
  5
CF4
330
1F
100
AcDbEntity
  8
0
100
AcDbPolyline
 90
       30
 70
     1
 43
0.0
 10
9398.58804357428
 20
4117.471908548995
 42
-0.4353011958067589
 10
9130.73892569074
 20
4366.833912452515
 10
9130.73892569074
 20
4698.299498938705
 42
0.4142135623730951
 10
9080.738925690743
 20
4748.299498938705
 10
9005.73892569074
 20
4748.299498938705
 42
0.4142135623730951
 10
8755.73892569074
 20
4498.299498938705
 10
8755.73892569074
 20
4363.703049630012
 10
9049.738925690739
 20
4363.703049630012
 42
-0.9999999999999998
 10
9055.738925690739
 20
4363.703049630012
 10
9055.738925690739
 20
4348.203049630011
 42
-0.9999999999999998
 10
9049.738925690739
 20
4348.203049630011
 10
8755.73892569074
 20
4348.203049630011
 10
8755.73892569074
 20
3848.299498938708
 42
0.4142135623730951
 10
8855.738925690742
 20
3748.299498938707
 10
8955.738925690743
 20
3748.299498938706
 10
8955.738925690743
 20
4042.299498938706
 42
-0.9999999999999998
 10
8955.738925690743
 20
4048.299498938706
 10
8971.238925690739
 20
4048.299498938706
 42
-0.9999999999999998
 10
8971.238925690739
 20
4042.299498938706
 10
8971.238925690739
 20
3748.299498938707
 10
9540.238925690742
 20
3748.299498938705
 10
9540.238925690742
 20
3942.299498938705
 42
-0.9999999999999998
 10
9540.238925690742
 20
3948.299498938705
 10
9555.738925690739
 20
3948.299498938705
 42
-0.9999999999999998
 10
9555.738925690739
 20
3942.299498938705
 10
9555.738925690739
 20
3748.299498938707
 10
9655.738925690741
 20
3748.299498938707
 42
0.4142135623730951
 10
9755.738925690742
 20
3848.299498938708
 10
9755.738925690742
 20
4089.329578975058
 42
0.4353011958066493
 10
9702.169102114053
 20
4139.201979755763
  0
LWPOLYLINE
  5
CFA
330
1F
100
AcDbEntity
  8
0
100
AcDbPolyline
 90
       31
 70
     1
 43
0.0
 10
10652.17973922437
 20
4117.471891568555
 42
-0.4353011958067589
 10
10384.33062134082
 20
4366.833895472074
 10
10384.33062134082
 20
4698.299481958264
 42
0.4142135623730951
 10
10334.33062134083
 20
4748.299481958264
 10
10259.33062134082
 20
4748.299481958264
 42
0.4142135623730951
 10
10009.33062134083
 20
4498.299481958264
 10
10009.33062134083
 20
4363.703032649572
 10
10303.33062134082
 20
4363.703032649572
 42
-0.9999999999999998
 10
10309.33062134082
 20
4363.703032649572
 10
10309.33062134082
 20
4348.20303264957
 42
-0.9999999999999998
 10
10303.33062134082
 20
4348.20303264957
 10
10009.33062134083
 20
4348.20303264957
 10
10009.33062134083
 20
3848.299481958266
 42
0.4142135623730951
 10
10109.33062134082
 20
3748.299481958266
 10
10209.33062134082
 20
3748.299481958266
 10
10209.33062134082
 20
4042.299481958266
 42
-0.9999999999999998
 10
10209.33062134082
 20
4048.299481958266
 10
10224.83062134083
 20
4048.299481958266
 42
-0.9999999999999998
 10
10224.83062134083
 20
4042.299481958266
 10
10224.83062134083
 20
3748.299481958266
 10
10793.83062134082
 20
3748.299481958265
 10
10793.83062134083
 20
3942.299481958264
 42
-0.9999999999999998
 10
10793.83062134083
 20
3948.299481958264
 10
10809.33062134083
 20
3948.299481958264
 42
-0.9999999999999998
 10
10809.33062134083
 20
3942.299481958264
 10
10809.33062134083
 20
3748.299481958266
 10
10909.33062134082
 20
3748.299481958266
 42
0.4142135623730951
 10
11009.33062134082
 20
3848.299481958266
 10
11009.33062134082
 20
4089.329561994616
 42
0.4353011958066493
 10
10955.76079776414
 20
4139.201962775323
 10
10652.17973922427
 20
4117.471891568547
  0
LWPOLYLINE
  5
D00
330
1F
100
AcDbEntity
  8
0
100
AcDbPolyline
 90
       31
 70
     1
 43
0.0
 10
11897.46250636226
 20
4117.471874588114
 42
-0.4353011958067589
 10
11629.61338847872
 20
4366.833878491634
 10
11629.61338847872
 20
4698.299464977824
 42
0.4142135623730951
 10
11579.61338847872
 20
4748.299464977825
 10
11504.61338847872
 20
4748.299464977825
 42
0.4142135623730951
 10
11254.61338847872
 20
4498.299464977825
 10
11254.61338847872
 20
4363.70301566913
 10
11548.61338847872
 20
4363.70301566913
 42
-0.9999999999999998
 10
11554.61338847872
 20
4363.70301566913
 10
11554.61338847872
 20
4348.20301566913
 42
-0.9999999999999998
 10
11548.61338847872
 20
4348.20301566913
 10
11254.61338847872
 20
4348.20301566913
 10
11254.61338847872
 20
3848.299464977826
 42
0.4142135623730951
 10
11354.61338847872
 20
3748.299464977826
 10
11454.61338847872
 20
3748.299464977825
 10
11454.61338847872
 20
4042.299464977824
 42
-0.9999999999999998
 10
11454.61338847872
 20
4048.299464977825
 10
11470.11338847871
 20
4048.299464977825
 42
-0.9999999999999998
 10
11470.11338847871
 20
4042.299464977824
 10
11470.11338847871
 20
3748.299464977826
 10
12039.11338847872
 20
3748.299464977824
 10
12039.11338847872
 20
3942.299464977825
 42
-0.9999999999999998
 10
12039.11338847872
 20
3948.299464977824
 10
12054.61338847872
 20
3948.299464977824
 42
-0.9999999999999998
 10
12054.61338847872
 20
3942.299464977823
 10
12054.61338847872
 20
3748.299464977826
 10
12154.61338847872
 20
3748.299464977826
 42
0.4142135623730951
 10
12254.61338847872
 20
3848.299464977826
 10
12254.61338847872
 20
4089.329545014176
 42
0.4353011958066493
 10
12201.04356490203
 20
4139.201945794882
 10
11897.46250636216
 20
4117.471874588106
  0
LWPOLYLINE
  5
D06
330
1F
100
AcDbEntity
  8
0
100
AcDbPolyline
 90
       31
 70
     1
 43
0.0
 10
13165.22048636806
 20
4117.471857607672
 42
-0.4353011958067589
 10
12897.37136848452
 20
4366.833861511193
 10
12897.37136848452
 20
4698.299447997384
 42
0.4142135623730951
 10
12847.37136848452
 20
4748.299447997384
 10
12772.37136848452
 20
4748.299447997384
 42
0.4142135623730951
 10
12522.37136848452
 20
4498.299447997384
 10
12522.37136848452
 20
4363.702998688689
 10
12816.37136848452
 20
4363.702998688689
 42
-0.9999999999999998
 10
12822.37136848452
 20
4363.702998688689
 10
12822.37136848452
 20
4348.202998688689
 42
-0.9999999999999998
 10
12816.37136848452
 20
4348.202998688689
 10
12522.37136848452
 20
4348.202998688689
 10
12522.37136848452
 20
3848.299447997386
 42
0.4142135623730951
 10
12622.37136848452
 20
3748.299447997386
 10
12722.37136848452
 20
3748.299447997384
 10
12722.37136848452
 20
4042.299447997384
 42
-0.9999999999999998
 10
12722.37136848452
 20
4048.299447997384
 10
12737.87136848452
 20
4048.299447997384
 42
-0.9999999999999998
 10
12737.87136848452
 20
4042.299447997384
 10
12737.87136848452
 20
3748.299447997386
 10
13306.87136848452
 20
3748.299447997383
 10
13306.87136848452
 20
3942.299447997383
 42
-0.9999999999999998
 10
13306.87136848452
 20
3948.299447997383
 10
13322.37136848452
 20
3948.299447997383
 42
-0.9999999999999998
 10
13322.37136848452
 20
3942.299447997383
 10
13322.37136848452
 20
3748.299447997386
 10
13422.37136848452
 20
3748.299447997386
 42
0.4142135623730951
 10
13522.37136848452
 20
3848.299447997386
 10
13522.37136848452
 20
4089.329528033736
 42
0.4353011958066493
 10
13468.80154490783
 20
4139.201928814441
 10
13165.22048636796
 20
4117.471857607664
  0
LWPOLYLINE
  5
D0C
330
1F
100
AcDbEntity
  8
0
100
AcDbPolyline
 90
       30
 70
     1
 43
0.0
 10
14398.06860692559
 20
4117.471875380146
 42
-0.4353011958067589
 10
14130.21948904205
 20
4366.833879283666
 10
14130.21948904205
 20
4698.299465769856
 42
0.4142135623730951
 10
14080.21948904205
 20
4748.299465769856
 10
14005.21948904205
 20
4748.299465769856
 42
0.4142135623730951
 10
13755.21948904205
 20
4498.299465769856
 10
13755.21948904205
 20
4363.703016461162
 10
14049.21948904205
 20
4363.703016461162
 42
-0.9999999999999998
 10
14055.21948904205
 20
4363.703016461162
 10
14055.21948904205
 20
4348.203016461162
 42
-0.9999999999999998
 10
14049.21948904205
 20
4348.203016461162
 10
13755.21948904205
 20
4348.203016461162
 10
13755.21948904205
 20
3848.299465769858
 42
0.4142135623730951
 10
13855.21948904205
 20
3748.299465769858
 10
13955.21948904205
 20
3748.299465769856
 10
13955.21948904205
 20
4042.299465769857
 42
-0.9999999999999998
 10
13955.21948904205
 20
4048.299465769856
 10
13970.71948904205
 20
4048.299465769857
 42
-0.9999999999999998
 10
13970.71948904205
 20
4042.299465769857
 10
13970.71948904205
 20
3748.299465769858
 10
14539.71948904206
 20
3748.299465769856
 10
14539.71948904206
 20
3942.299465769855
 42
-0.9999999999999998
 10
14539.71948904206
 20
3948.299465769855
 10
14555.21948904206
 20
3948.299465769855
 42
-0.9999999999999998
 10
14555.21948904206
 20
3942.299465769855
 10
14555.21948904206
 20
3748.299465769858
 10
14655.21948904205
 20
3748.299465769858
 42
0.4142135623730951
 10
14755.21948904205
 20
3848.299465769858
 10
14755.21948904205
 20
4089.329545806207
 42
0.4353011958066493
 10
14701.64966546537
 20
4139.201946586912
  0
LWPOLYLINE
  5
D12
330
1F
100
AcDbEntity
  8
0
100
AcDbPolyline
 90
       31
 70
     1
 43
0.0
 10
15665.8265869314
 20
4117.471858399706
 42
-0.4353011958067589
 10
15397.97746904786
 20
4366.833862303225
 10
15397.97746904786
 20
4698.299448789415
 42
0.4142135623730951
 10
15347.97746904786
 20
4748.299448789416
 10
15272.97746904785
 20
4748.299448789416
 42
0.4142135623730951
 10
15022.97746904786
 20
4498.299448789416
 10
15022.97746904786
 20
4363.702999480721
 10
15316.97746904786
 20
4363.702999480721
 42
-0.9999999999999998
 10
15322.97746904785
 20
4363.702999480721
 10
15322.97746904786
 20
4348.20299948072
 42
-0.9999999999999998
 10
15316.97746904786
 20
4348.20299948072
 10
15022.97746904786
 20
4348.20299948072
 10
15022.97746904786
 20
3848.299448789416
 42
0.4142135623730951
 10
15122.97746904786
 20
3748.299448789416
 10
15222.97746904786
 20
3748.299448789416
 10
15222.97746904786
 20
4042.299448789416
 42
-0.9999999999999998
 10
15222.97746904786
 20
4048.299448789416
 10
15238.47746904785
 20
4048.299448789416
 42
-0.9999999999999998
 10
15238.47746904785
 20
4042.299448789416
 10
15238.47746904785
 20
3748.299448789416
 10
15807.47746904785
 20
3748.299448789416
 10
15807.47746904786
 20
3942.299448789415
 42
-0.9999999999999998
 10
15807.47746904786
 20
3948.299448789415
 10
15822.97746904786
 20
3948.299448789415
 42
-0.9999999999999998
 10
15822.97746904786
 20
3942.299448789415
 10
15822.97746904786
 20
3748.299448789416
 10
15922.97746904786
 20
3748.299448789416
 42
0.4142135623730951
 10
16022.97746904786
 20
3848.299448789416
 10
16022.97746904786
 20
4089.329528825767
 42
0.4353011958066493
 10
15969.40764547117
 20
4139.201929606473
 10
15665.8265869313
 20
4117.471858399698
  0
LWPOLYLINE
  5
D18
330
1F
100
AcDbEntity
  8
0
100
AcDbPolyline
 90
       30
 70
     1
 43
0.0
 10
17105.07795595602
 20
4248.29948314632
 42
-0.4142135623730951
 10
16755.07795595602
 20
4598.299483146319
 10
16755.07795595602
 20
4698.299483146313
 42
0.4142135623730951
 10
16705.07795595602
 20
4748.299483146313
 10
16505.07795595602
 20
4748.299483146313
 42
0.4142135623730951
 10
16255.07795595602
 20
4498.299483146313
 10
16255.07795595602
 20
4363.703033837619
 10
16549.07795595602
 20
4363.703033837619
 42
-0.9999999999999998
 10
16555.07795595602
 20
4363.703033837619
 10
16555.07795595602
 20
4348.203033837619
 42
-0.9999999999999998
 10
16549.07795595602
 20
4348.203033837619
 10
16255.07795595602
 20
4348.203033837619
 10
16255.07795595602
 20
3848.299483146315
 42
0.4142135623730951
 10
16355.07795595602
 20
3748.299483146315
 10
16455.07795595602
 20
3748.299483146313
 10
16455.07795595602
 20
4042.299483146313
 42
-0.9999999999999998
 10
16455.07795595602
 20
4048.299483146313
 10
16470.57795595602
 20
4048.299483146313
 42
-0.9999999999999998
 10
16470.57795595602
 20
4042.299483146313
 10
16470.57795595602
 20
3748.299483146315
 10
17039.577955956
 20
3748.299483146313
 10
17039.577955956
 20
3942.299483146313
 42
-0.9999999999999998
 10
17039.577955956
 20
3948.299483146313
 10
17055.07795595602
 20
3948.299483146313
 42
-0.9999999999999998
 10
17055.07795595602
 20
3942.299483146313
 10
17055.07795595602
 20
3748.299483146315
 10
17155.07795595602
 20
3748.299483146315
 42
0.4142135623730951
 10
17255.07795595602
 20
3848.299483146315
 10
17255.07795595602
 20
4198.29948314632
 42
0.4142135623730792
 10
17205.07795595602
 20
4248.29948314632
  0
LWPOLYLINE
  5
D24
330
1F
100
AcDbEntity
  8
0
100
AcDbPolyline
 90
       33
 70
     1
 43
0.0
 10
18240.41565513788
 20
4383.164622312706
 42
-0.4146232187667799
 10
17990.06604229861
 20
4633.164377854313
 10
17990.06604229861
 20
4692.261145907127
 42
0.3669540540421649
 10
17948.22952769459
 20
4741.590219547219
 42
0.0410239732730274
 10
17866.59467373478
 20
4748.2994831463
 10
17616.59467373478
 20
4748.2994831463
 42
0.4142135623730951
 10
17366.59467373478
 20
4498.2994831463
 10
17366.59467373478
 20
4363.703033837606
 10
17660.59467373478
 20
4363.703033837606
 42
-0.9999999999999998
 10
17666.59467373478
 20
4363.703033837606
 10
17666.59467373478
 20
4348.203033837606
 42
-0.9999999999999998
 10
17660.59467373478
 20
4348.203033837606
 10
17366.59467373478
 20
4348.203033837606
 10
17366.59467373478
 20
3848.299483146301
 42
0.4142135623730951
 10
17466.59467373478
 20
3748.299483146301
 10
17566.59467373478
 20
3748.2994831463
 10
17566.59467373478
 20
4042.2994831463
 42
-0.9999999999999998
 10
17566.59467373478
 20
4048.299483146299
 10
17582.09467373478
 20
4048.299483146299
 42
-0.9999999999999998
 10
17582.09467373478
 20
4042.299483146301
 10
17582.09467373478
 20
3748.299483146301
 10
18151.09467373478
 20
3748.2994831463
 10
18151.09467373478
 20
3942.299483146299
 42
-0.9999999999999998
 10
18151.09467373478
 20
3948.299483146298
 10
18166.59467373478
 20
3948.299483146298
 42
-0.9999999999999998
 10
18166.59467373478
 20
3942.299483146299
 10
18166.59467373478
 20
3748.299483146301
 10
18266.59467373478
 20
3748.299483146301
 42
0.4142135623730951
 10
18366.59467373478
 20
3848.299483146301
 10
18366.59467373478
 20
4248.2994831463
 42
0.0475209019735091
 10
18357.60238850132
 20
4342.699822339252
 42
0.3600089632281006
 10
18308.43169445675
 20
4383.259739528276
 10
18240.41565513816
 20
4383.164622312704
  0
LWPOLYLINE
  5
D2A
330
1F
100
AcDbEntity
  8
0
100
AcDbPolyline
 90
       32
 70
     1
 43
0.0
 10
19427.19659866091
 20
3748.299491735512
 10
19527.19659866091
 20
3748.299491735512
 42
0.4142135623730951
 10
19627.19659866091
 20
3848.299491735512
 10
19627.19659866091
 20
4248.299491735512
 42
0.1219791590380911
 10
19569.41323737498
 20
4481.632825068838
 42
0.2781792779259733
 10
19525.19157350358
 20
4508.299491735505
 10
19516.49153752706
 20
4508.299491735511
 42
-0.4142135623730951
 10
19366.49153752706
 20
4658.299491735511
 10
19366.49153752706
 20
4656.548712334484
 42
0.2920606544520822
 10
19337.52430851219
 20
4701.909736845476
 42
0.1089701868172565
 10
19127.19659866091
 20
4748.299491735512
 10
18877.19659866091
 20
4748.299491735512
 42
0.4142135623730951
 10
18627.19659866091
 20
4498.299491735512
 10
18627.19659866091
 20
4363.703042426817
 10
18921.19659866091
 20
4363.703042426817
 42
-0.9999999999999998
 10
18927.19659866091
 20
4363.703042426817
 10
18927.19659866091
 20
4348.203042426818
 42
-0.9999999999999998
 10
18921.19659866091
 20
4348.203042426818
 10
18627.19659866091
 20
4348.203042426818
 10
18627.19659866091
 20
3848.299491735512
 42
0.4142135623730951
 10
18727.19659866091
 20
3748.299491735512
 10
18827.19659866091
 20
3748.299491735512
 10
18827.19659866091
 20
4042.299491735509
 42
-0.9999999999999998
 10
18827.19659866091
 20
4048.29949173551
 10
18842.69659866091
 20
4048.29949173551
 42
-0.9999999999999998
 10
18842.69659866091
 20
4042.299491735511
 10
18842.69659866091
 20
3748.299491735512
 10
19411.69659866091
 20
3748.299491735511
 10
19411.69659866091
 20
3942.299491735511
 42
-0.9999999999999998
 10
19411.69659866091
 20
3948.29949173551
 10
19427.19659866091
 20
3948.29949173551
 42
-0.9999999999999998
 10
19427.19659866091
 20
3942.299491735511
  0
LWPOLYLINE
  5
D30
330
1F
100
AcDbEntity
  8
0
100
AcDbPolyline
 90
       26
 70
     1
 43
0.0
 10
20074.82328573935
 20
3748.299453182993
 10
20074.82328573935
 20
4042.299453182993
 42
-0.9999999999999998
 10
20074.82328573935
 20
4048.299453182993
 10
20090.32328573935
 20
4048.299453182994
 42
-0.9999999999999998
 10
20090.32328573935
 20
4042.299453182993
 10
20090.32328573935
 20
3748.299453182994
 10
20659.32328573934
 20
3748.299453182993
 10
20659.32328573934
 20
3942.299453182993
 42
-0.9999999999999998
 10
20659.32328573934
 20
3948.299453182993
 10
20674.82328573934
 20
3948.299453182993
 42
-0.9999999999999998
 10
20674.82328573934
 20
3942.299453182992
 10
20674.82328573934
 20
3748.299453182994
 10
20774.82328573934
 20
3748.299453182994
 42
0.4142135623730951
 10
20874.82328573934
 20
3848.299453182994
 10
20874.82328573934
 20
4248.299453182993
 42
0.4142135623730951
 10
20374.82328573934
 20
4748.299453182993
 10
20124.82328573935
 20
4748.299453182993
 42
0.4142135623730951
 10
19874.82328573934
 20
4498.299453182993
 10
19874.82328573934
 20
4363.703003874298
 10
20168.82328573935
 20
4363.703003874298
 42
-0.9999999999999998
 10
20174.82328573934
 20
4363.703003874298
 10
20174.82328573934
 20
4348.203003874298
 42
-0.9999999999999998
 10
20168.82328573935
 20
4348.203003874298
 10
19874.82328573934
 20
4348.203003874298
 10
19874.82328573934
 20
3848.299453182994
 42
0.4142135623730951
 10
19974.82328573934
 20
3748.299453182994
  0
LWPOLYLINE
  5
112A
330
1F
100
AcDbEntity
  8
0
100
AcDbPolyline
 90
        4
 70
     1
 43
0.0
 10
949.628085755241
 20
3422.757212354888
 10
3389.628085755241
 20
3422.757212354888
 10
3389.628085755241
 20
2202.757212354887
 10
949.628085755241
 20
2202.757212354887
  0
LWPOLYLINE
  5
1162
330
1F
100
AcDbEntity
  8
0
100
AcDbPolyline
 90
       96
 70
     1
 43
0.0
 10
4253.61887948885
 20
5337.305419478372
 10
4253.61887948885
 20
5381.305419478374
 42
0.9999999999999998
 10
4253.61887948885
 20
5387.305419478373
 10
4238.118879488848
 20
5387.305419478376
 42
0.9999999999999998
 10
4238.118879488848
 20
5381.305419478374
 10
4238.118879488848
 20
5337.305419478376
 10
4188.118843064561
 20
5337.305419478372
 10
4188.118843064561
 20
5381.305419478374
 42
0.9999999999999998
 10
4188.118843064561
 20
5387.305419478373
 10
4172.618843064561
 20
5387.305419478376
 42
0.9999999999999998
 10
4172.618843064561
 20
5381.305419478374
 10
4172.618843064561
 20
5337.305419478372
 10
4122.618806640274
 20
5337.305419478372
 10
4122.618806640274
 20
5381.305419478374
 42
0.9999999999999998
 10
4122.618806640274
 20
5387.305419478373
 10
4107.118806640274
 20
5387.305419478376
 42
0.9999999999999998
 10
4107.118806640274
 20
5381.305419478374
 10
4107.118806640274
 20
5337.305419478372
 10
4057.118806640274
 20
5337.305419478372
 10
4057.118806640274
 20
5381.305419478374
 42
0.9999999999999998
 10
4057.118806640274
 20
5387.305419478373
 10
4031.618806640273
 20
5387.305419478373
 10
4031.618806640274
 20
5537.305419478373
 42
-0.4142135623730919
 10
4081.618806640274
 20
5587.305419478372
 10
5001.618806640274
 20
5587.305419478372
 42
-0.4142135623730948
 10
5051.618806640274
 20
5537.305419478371
 10
5051.618806640274
 20
5387.305419478373
 10
5024.119316580303
 20
5387.305419478376
 42
0.9999999999999998
 10
5024.119316580303
 20
5381.305419478374
 10
5024.119316580303
 20
5337.305419478372
 10
4974.119280156013
 20
5337.305419478372
 10
4974.119280156013
 20
5381.305419478374
 42
0.9999999999999998
 10
4974.119280156013
 20
5387.305419478373
 10
4958.619280156017
 20
5387.305419478376
 42
0.9999999999999998
 10
4958.619280156017
 20
5381.305419478374
 10
4958.619280156017
 20
5337.305419478372
 10
4908.619243731727
 20
5337.305419478372
 10
4908.619243731727
 20
5381.305419478374
 42
0.9999999999999998
 10
4908.619243731727
 20
5387.305419478373
 10
4893.119243731728
 20
5387.305419478376
 42
0.9999999999999998
 10
4893.119243731728
 20
5381.305419478374
 10
4893.119243731728
 20
5337.305419478372
 10
4843.11920730744
 20
5337.305419478372
 10
4843.11920730744
 20
5381.305419478374
 42
0.9999999999999998
 10
4843.11920730744
 20
5387.305419478373
 10
4827.619207307439
 20
5387.305419478376
 42
0.9999999999999998
 10
4827.619207307439
 20
5381.305419478374
 10
4827.619207307439
 20
5337.305419478376
 10
4777.619170883151
 20
5337.305419478372
 10
4777.619170883151
 20
5381.305419478374
 42
0.9999999999999998
 10
4777.619170883151
 20
5387.305419478373
 10
4762.119170883152
 20
5387.305419478376
 42
0.9999999999999998
 10
4762.119170883152
 20
5381.305419478374
 10
4762.119170883152
 20
5337.305419478372
 10
4712.119134458864
 20
5337.305419478372
 10
4712.119134458864
 20
5381.305419478374
 42
0.9999999999999998
 10
4712.119134458864
 20
5387.305419478373
 10
4696.619134458864
 20
5387.305419478376
 42
0.9999999999999998
 10
4696.619134458864
 20
5381.305419478374
 10
4696.619134458864
 20
5337.305419478372
 10
4646.619098034576
 20
5337.305419478372
 10
4646.619098034576
 20
5381.305419478374
 42
0.9999999999999998
 10
4646.619098034576
 20
5387.305419478373
 10
4631.119098034575
 20
5387.305419478376
 42
0.9999999999999998
 10
4631.119098034575
 20
5381.305419478374
 10
4631.119098034575
 20
5337.305419478372
 10
4581.119061610286
 20
5337.305419478372
 10
4581.119061610286
 20
5381.305419478374
 42
0.9999999999999998
 10
4581.119061610286
 20
5387.305419478373
 10
4565.619061610287
 20
5387.305419478376
 42
0.9999999999999998
 10
4565.619061610287
 20
5381.305419478374
 10
4565.619061610287
 20
5337.305419478372
 10
4515.619025186
 20
5337.305419478372
 10
4515.619025186
 20
5381.305419478374
 42
0.9999999999999998
 10
4515.619025186
 20
5387.305419478373
 10
4500.119025186001
 20
5387.305419478376
 42
0.9999999999999998
 10
4500.119025186001
 20
5381.305419478374
 10
4500.119025186001
 20
5337.305419478372
 10
4450.118988761713
 20
5337.305419478372
 10
4450.118988761713
 20
5381.305419478374
 42
0.9999999999999998
 10
4450.118988761713
 20
5387.305419478373
 10
4434.618988761712
 20
5387.305419478376
 42
0.9999999999999998
 10
4434.618988761712
 20
5381.305419478374
 10
4434.618988761712
 20
5337.305419478372
 10
4384.618952337425
 20
5337.305419478372
 10
4384.618952337425
 20
5381.305419478374
 42
0.9999999999999998
 10
4384.618952337425
 20
5387.305419478373
 10
4369.118952337425
 20
5387.305419478376
 42
0.9999999999999998
 10
4369.118952337425
 20
5381.305419478374
 10
4369.118952337425
 20
5337.305419478372
 10
4319.118915913137
 20
5337.305419478372
 10
4319.118915913137
 20
5381.305419478374
 42
0.9999999999999998
 10
4319.118915913137
 20
5387.305419478373
 10
4303.618915913137
 20
5387.305419478376
 42
0.9999999999999998
 10
4303.618915913137
 20
5381.305419478374
 10
4303.618915913137
 20
5337.305419478372
  0
LWPOLYLINE
  5
11C2
330
1F
100
AcDbEntity
  8
0
100
AcDbPolyline
 90
       96
 70
     1
 43
0.0
 10
3427.025471770719
 20
5337.305419478372
 10
3377.025435346432
 20
5337.305419478376
 10
3377.025435346432
 20
5381.305419478375
 42
0.9999999999999998
 10
3377.025435346432
 20
5387.305419478376
 10
3361.525435346432
 20
5387.305419478376
 42
0.9999999999999998
 10
3361.525435346432
 20
5381.305419478374
 10
3361.525435346432
 20
5337.305419478376
 10
3311.525398922145
 20
5337.305419478376
 10
3311.525398922145
 20
5381.305419478375
 42
0.9999999999999998
 10
3311.525398922145
 20
5387.305419478376
 10
3296.025398922143
 20
5387.305419478376
 42
0.9999999999999998
 10
3296.025398922143
 20
5381.305419478374
 10
3296.025398922143
 20
5337.305419478376
 10
3246.025362497857
 20
5337.305419478376
 10
3246.025362497857
 20
5381.305419478375
 42
0.9999999999999998
 10
3246.025362497857
 20
5387.305419478376
 10
3230.525362497856
 20
5387.305419478376
 42
0.9999999999999998
 10
3230.525362497856
 20
5381.305419478374
 10
3230.525362497856
 20
5337.305419478376
 10
3180.525326073568
 20
5337.305419478376
 10
3180.525326073568
 20
5381.305419478375
 42
0.9999999999999998
 10
3180.525326073568
 20
5387.305419478376
 10
3165.025326073568
 20
5387.305419478376
 42
0.9999999999999998
 10
3165.025326073568
 20
5381.305419478374
 10
3165.025326073568
 20
5337.305419478376
 10
3115.02528964928
 20
5337.305419478376
 10
3115.02528964928
 20
5381.305419478375
 42
0.9999999999999998
 10
3115.02528964928
 20
5387.305419478376
 10
3099.52528964928
 20
5387.305419478376
 42
0.9999999999999998
 10
3099.52528964928
 20
5381.305419478374
 10
3099.52528964928
 20
5337.305419478376
 10
3049.525253224994
 20
5337.305419478376
 10
3049.525253224994
 20
5381.305419478375
 42
0.9999999999999998
 10
3049.525253224994
 20
5387.305419478376
 10
3034.025253224994
 20
5387.305419478376
 42
0.9999999999999998
 10
3034.025253224994
 20
5381.305419478374
 10
3034.025253224994
 20
5337.305419478376
 10
2984.025216800705
 20
5337.305419478376
 10
2984.025216800705
 20
5381.305419478375
 42
0.9999999999999998
 10
2984.025216800705
 20
5387.305419478376
 10
2968.525216800705
 20
5387.305419478376
 42
0.9999999999999998
 10
2968.525216800705
 20
5381.305419478374
 10
2968.525216800705
 20
5337.305419478376
 10
2918.525180376418
 20
5337.305419478376
 10
2918.525180376418
 20
5381.305419478375
 42
0.9999999999999998
 10
2918.525180376418
 20
5387.305419478376
 10
2903.025180376417
 20
5387.305419478376
 42
0.9999999999999998
 10
2903.025180376417
 20
5381.305419478374
 10
2903.025180376417
 20
5337.305419478372
 10
2853.025143952129
 20
5337.305419478376
 10
2853.025143952129
 20
5381.305419478375
 42
0.9999999999999998
 10
2853.025143952129
 20
5387.305419478376
 10
2837.525143952129
 20
5387.305419478376
 42
0.9999999999999998
 10
2837.525143952129
 20
5381.305419478374
 10
2837.525143952129
 20
5337.305419478376
 10
2787.525143952129
 20
5337.305419478376
 10
2787.525143952129
 20
5381.305419478375
 42
0.9999999999999998
 10
2787.525143952129
 20
5387.305419478376
 10
2762.025143952129
 20
5387.305419478376
 10
2762.025143952129
 20
5637.305419478376
 42
-0.4142135623730951
 10
2812.025143952129
 20
5687.305419478374
 10
3732.025143952129
 20
5687.305419478375
 42
-0.4142135623730951
 10
3782.025143952129
 20
5637.305419478376
 10
3782.025143952129
 20
5387.305419478376
 10
3754.525653892159
 20
5387.305419478376
 42
0.9999999999999998
 10
3754.525653892159
 20
5381.305419478374
 10
3754.525653892159
 20
5337.305419478372
 10
3704.525617467871
 20
5337.305419478376
 10
3704.525617467871
 20
5381.305419478375
 42
0.9999999999999998
 10
3704.525617467871
 20
5387.305419478376
 10
3689.025617467871
 20
5387.305419478376
 42
0.9999999999999998
 10
3689.025617467871
 20
5381.305419478374
 10
3689.025617467871
 20
5337.305419478372
 10
3639.025581043583
 20
5337.305419478376
 10
3639.025581043583
 20
5381.305419478375
 42
0.9999999999999998
 10
3639.025581043583
 20
5387.305419478376
 10
3623.525581043583
 20
5387.305419478376
 42
0.9999999999999998
 10
3623.525581043583
 20
5381.305419478374
 10
3623.525581043583
 20
5337.305419478376
 10
3573.525544619295
 20
5337.305419478376
 10
3573.525544619295
 20
5381.305419478375
 42
0.9999999999999998
 10
3573.525544619295
 20
5387.305419478376
 10
3558.025544619295
 20
5387.305419478376
 42
0.9999999999999998
 10
3558.025544619295
 20
5381.305419478374
 10
3558.025544619295
 20
5337.305419478376
 10
3508.025508195007
 20
5337.305419478376
 10
3508.025508195007
 20
5381.305419478375
 42
0.9999999999999998
 10
3508.025508195007
 20
5387.305419478376
 10
3492.525508195007
 20
5387.305419478376
 42
0.9999999999999998
 10
3492.525508195007
 20
5381.305419478374
 10
3492.525508195007
 20
5337.305419478376
 10
3442.52547177072
 20
5337.305419478376
 10
3442.52547177072
 20
5381.305419478375
 42
0.9999999999999998
 10
3442.52547177072
 20
5387.305419478376
 10
3427.025471770721
 20
5387.305419478376
 42
0.9999999999999998
 10
3427.025471770721
 20
5381.305419478374
  0
LWPOLYLINE
  5
1222
330
1F
100
AcDbEntity
  8
0
100
AcDbPolyline
 90
       96
 70
     1
 43
0.0
 10
1567.445283345941
 20
5337.305419478372
 10
1517.445246921654
 20
5337.305419478376
 10
1517.445246921654
 20
5381.305419478375
 42
0.9999999999999998
 10
1517.445246921654
 20
5387.305419478376
 10
1501.945246921654
 20
5387.305419478376
 42
0.9999999999999998
 10
1501.945246921654
 20
5381.305419478374
 10
1501.945246921654
 20
5337.305419478376
 10
1451.945246921654
 20
5337.305419478376
 10
1451.945246921654
 20
5381.305419478375
 42
0.9999999999999998
 10
1451.945246921654
 20
5387.305419478376
 10
1426.445246921654
 20
5387.305419478376
 10
1426.445246921654
 20
5637.305419478376
 42
-0.4142135623730951
 10
1476.445246921654
 20
5687.305419478374
 10
2396.445246921654
 20
5687.305419478375
 42
-0.4142135623730951
 10
2446.445246921654
 20
5637.305419478376
 10
2446.445246921654
 20
5387.305419478376
 10
2418.945756861683
 20
5387.305419478376
 42
0.9999999999999998
 10
2418.945756861683
 20
5381.305419478374
 10
2418.945756861683
 20
5337.305419478372
 10
2368.945720437396
 20
5337.305419478376
 10
2368.945720437396
 20
5381.305419478375
 42
0.9999999999999998
 10
2368.945720437396
 20
5387.305419478376
 10
2353.445720437396
 20
5387.305419478376
 42
0.9999999999999998
 10
2353.445720437396
 20
5381.305419478374
 10
2353.445720437396
 20
5337.305419478372
 10
2303.445684013108
 20
5337.305419478376
 10
2303.445684013108
 20
5381.305419478375
 42
0.9999999999999998
 10
2303.445684013108
 20
5387.305419478376
 10
2287.945684013108
 20
5387.305419478376
 42
0.9999999999999998
 10
2287.945684013108
 20
5381.305419478374
 10
2287.945684013108
 20
5337.305419478376
 10
2237.94564758882
 20
5337.305419478376
 10
2237.94564758882
 20
5381.305419478375
 42
0.9999999999999998
 10
2237.94564758882
 20
5387.305419478376
 10
2222.44564758882
 20
5387.305419478376
 42
0.9999999999999998
 10
2222.44564758882
 20
5381.305419478374
 10
2222.44564758882
 20
5337.305419478376
 10
2172.445611164532
 20
5337.305419478376
 10
2172.445611164532
 20
5381.305419478375
 42
0.9999999999999998
 10
2172.445611164532
 20
5387.305419478376
 10
2156.945611164532
 20
5387.305419478376
 42
0.9999999999999998
 10
2156.945611164532
 20
5381.305419478374
 10
2156.945611164532
 20
5337.305419478376
 10
2106.945574740244
 20
5337.305419478376
 10
2106.945574740244
 20
5381.305419478375
 42
0.9999999999999998
 10
2106.945574740244
 20
5387.305419478376
 10
2091.445574740244
 20
5387.305419478376
 42
0.9999999999999998
 10
2091.445574740244
 20
5381.305419478374
 10
2091.445574740244
 20
5337.305419478372
 10
2041.445538315957
 20
5337.305419478376
 10
2041.445538315957
 20
5381.305419478375
 42
0.9999999999999998
 10
2041.445538315957
 20
5387.305419478376
 10
2025.945538315957
 20
5387.305419478376
 42
0.9999999999999998
 10
2025.945538315957
 20
5381.305419478374
 10
2025.945538315957
 20
5337.305419478376
 10
1975.945501891669
 20
5337.305419478376
 10
1975.945501891669
 20
5381.305419478375
 42
0.9999999999999998
 10
1975.945501891669
 20
5387.305419478376
 10
1960.445501891669
 20
5387.305419478376
 42
0.9999999999999998
 10
1960.445501891669
 20
5381.305419478374
 10
1960.445501891669
 20
5337.305419478376
 10
1910.445465467381
 20
5337.305419478376
 10
1910.445465467381
 20
5381.305419478375
 42
0.9999999999999998
 10
1910.445465467381
 20
5387.305419478376
 10
1894.945465467381
 20
5387.305419478376
 42
0.9999999999999998
 10
1894.945465467381
 20
5381.305419478374
 10
1894.945465467381
 20
5337.305419478376
 10
1844.945429043093
 20
5337.305419478376
 10
1844.945429043093
 20
5381.305419478375
 42
0.9999999999999998
 10
1844.945429043093
 20
5387.305419478376
 10
1829.445429043093
 20
5387.305419478376
 42
0.9999999999999998
 10
1829.445429043093
 20
5381.305419478374
 10
1829.445429043093
 20
5337.305419478376
 10
1779.445392618805
 20
5337.305419478376
 10
1779.445392618805
 20
5381.305419478375
 42
0.9999999999999998
 10
1779.445392618805
 20
5387.305419478376
 10
1763.945392618805
 20
5387.305419478376
 42
0.9999999999999998
 10
1763.945392618805
 20
5381.305419478374
 10
1763.945392618805
 20
5337.305419478376
 10
1713.945356194517
 20
5337.305419478376
 10
1713.945356194517
 20
5381.305419478375
 42
0.9999999999999998
 10
1713.945356194517
 20
5387.305419478376
 10
1698.445356194517
 20
5387.305419478376
 42
0.9999999999999998
 10
1698.445356194517
 20
5381.305419478374
 10
1698.445356194517
 20
5337.305419478376
 10
1648.44531977023
 20
5337.305419478376
 10
1648.44531977023
 20
5381.305419478375
 42
0.9999999999999998
 10
1648.44531977023
 20
5387.305419478376
 10
1632.945319770229
 20
5387.305419478376
 42
0.9999999999999998
 10
1632.945319770229
 20
5381.305419478374
 10
1632.945319770229
 20
5337.305419478376
 10
1582.945283345942
 20
5337.305419478376
 10
1582.945283345942
 20
5381.305419478375
 42
0.9999999999999998
 10
1582.945283345942
 20
5387.305419478376
 10
1567.445283345942
 20
5387.305419478376
 42
0.9999999999999998
 10
1567.445283345942
 20
5381.305419478374
  0
LWPOLYLINE
  5
1388
102
{ACAD_XDICTIONARY
360
144E
102
}
330
1F
100
AcDbEntity
  8
0
100
AcDbPolyline
 90
       26
 70
     1
 43
0.0
 10
978.3578917932224
 20
-513.3829616740568
 10
998.3578917932222
 20
-513.3829616740568
 42
0.4142135623730951
 10
1018.357891793222
 20
-493.3829616740568
 10
1018.357891793222
 20
-413.3829616740568
 42
0.4142135623730951
 10
918.3578917932221
 20
-313.3829616740568
 10
868.3578917932221
 20
-313.3829616740568
 42
0.4142135623730951
 10
818.3578917932219
 20
-363.3829616740568
 10
818.3578917932219
 20
-390.3022515357956
 10
877.157891793222
 20
-390.3022515357956
 42
-0.9999999999999998
 10
878.3578917932221
 20
-390.3022515357956
 10
878.3578917932221
 20
-393.4022515357956
 42
-0.9999999999999998
 10
877.157891793222
 20
-393.4022515357956
 10
818.3578917932219
 20
-393.4022515357956
 10
818.3578917932219
 20
-493.3829616740568
 42
0.4142135623730951
 10
838.357891793222
 20
-513.3829616740568
 10
858.357891793222
 20
-513.3829616740568
 10
858.357891793222
 20
-454.5829616740568
 42
-0.9999999999999998
 10
858.357891793222
 20
-453.3829616740566
 10
861.457891793222
 20
-453.3829616740566
 42
-0.9999999999999998
 10
861.457891793222
 20
-454.5829616740568
 10
861.457891793222
 20
-513.3829616740568
 10
975.2578917932224
 20
-513.3829616740568
 10
975.2578917932224
 20
-474.5829616740572
 42
-0.9999999999999998
 10
975.2578917932224
 20
-473.382961674057
 10
978.3578917932224
 20
-473.382961674057
 42
-0.9999999999999998
 10
978.3578917932224
 20
-474.5829616740572
  0
LWPOLYLINE
  5
1389
330
1F
100
AcDbEntity
  8
0
100
AcDbPolyline
 90
       32
 70
     1
 43
0.0
 10
1273.009803439734
 20
-361.3829693845581
 42
-0.4142135623730951
 10
1243.009803439734
 20
-331.3829693845581
 10
1243.009803439734
 20
-331.7331252647633
 42
0.2920606544520822
 10
1237.216357636759
 20
-322.660920362565
 42
0.1089701868172565
 10
1195.150815666504
 20
-313.382969384558
 10
1145.150815666504
 20
-313.382969384558
 42
0.4142135623730951
 10
1095.150815666504
 20
-363.382969384558
 10
1095.150815666504
 20
-390.3022592462968
 10
1153.950815666504
 20
-390.3022592462968
 42
-0.9999999999999998
 10
1155.150815666504
 20
-390.3022592462968
 10
1155.150815666504
 20
-393.4022592462969
 42
-0.9999999999999998
 10
1153.950815666504
 20
-393.4022592462969
 10
1095.150815666504
 20
-393.4022592462969
 10
1095.150815666504
 20
-493.3829693845577
 42
0.4142135623730951
 10
1115.150815666503
 20
-513.3829693845576
 10
1135.150815666504
 20
-513.3829693845576
 10
1135.150815666504
 20
-454.582969384558
 42
-0.9999999999999998
 10
1135.150815666504
 20
-453.3829693845578
 10
1138.250815666504
 20
-453.3829693845579
 42
-0.9999999999999998
 10
1138.250815666504
 20
-454.582969384558
 10
1138.250815666504
 20
-513.3829693845576
 10
1252.050815666504
 20
-513.382969384558
 10
1252.050815666504
 20
-474.5829693845581
 42
-0.9999999999999998
 10
1252.050815666504
 20
-473.3829693845581
 10
1255.150815666504
 20
-473.3829693845581
 42
-0.9999999999999998
 10
1255.150815666504
 20
-474.5829693845581
 10
1255.150815666504
 20
-513.3829693845576
 10
1275.150815666504
 20
-513.3829693845576
 42
0.4142135623730951
 10
1295.150815666504
 20
-493.3829693845577
 10
1295.150815666504
 20
-413.382969384558
 42
0.1219791590380911
 10
1283.594143409317
 20
-366.7163027178923
 42
0.2781792779259733
 10
1274.749810635038
 20
-361.382969384559
  0
LWPOLYLINE
  5
138A
330
1F
100
AcDbEntity
  8
0
100
AcDbPolyline
 90
       32
 70
     1
 43
0.0
 10
1518.331793939938
 20
-386.4099398334321
 42
-0.4146232187671
 10
1468.261871372029
 20
-336.409988725111
 10
1468.261871372029
 20
-324.5906351145477
 42
0.3669540540421649
 10
1459.894568451226
 20
-314.7248203865292
 42
0.0410239732730274
 10
1443.567597659263
 20
-313.3829676667128
 10
1393.567597659263
 20
-313.3829676667128
 42
0.4142135623730951
 10
1343.567597659263
 20
-363.3829676667128
 10
1343.567597659263
 20
-390.302257528452
 10
1402.367597659263
 20
-390.302257528452
 42
-0.9999999999999998
 10
1403.567597659263
 20
-390.302257528452
 10
1403.567597659263
 20
-393.4022575284519
 42
-0.9999999999999998
 10
1402.367597659263
 20
-393.4022575284519
 10
1343.567597659263
 20
-393.4022575284519
 10
1343.567597659263
 20
-493.3829676667128
 42
0.4142135623730951
 10
1363.567597659263
 20
-513.3829676667128
 10
1383.567597659263
 20
-513.3829676667128
 10
1383.567597659263
 20
-454.5829676667128
 42
-0.9999999999999998
 10
1383.567597659263
 20
-453.3829676667129
 10
1386.667597659263
 20
-453.3829676667129
 42
-0.9999999999999998
 10
1386.667597659263
 20
-454.5829676667128
 10
1386.667597659263
 20
-513.3829676667128
 10
1500.467597659263
 20
-513.382967666713
 10
1500.467597659263
 20
-474.5829676667131
 42
-0.9999999999999998
 10
1500.467597659263
 20
-473.3829676667132
 10
1503.567597659263
 20
-473.3829676667132
 42
-0.9999999999999998
 10
1503.567597659263
 20
-474.5829676667131
 10
1503.567597659263
 20
-513.3829676667128
 10
1523.567597659263
 20
-513.3829676667128
 42
0.4142135623730951
 10
1543.567597659263
 20
-493.3829676667128
 10
1543.567597659263
 20
-413.3829676667128
 42
0.0475209019735091
 10
1541.76914061257
 20
-394.5028998281228
 42
0.3600089632281006
 10
1531.935001803658
 20
-386.3909163903176
  0
LWPOLYLINE
  5
138B
330
1F
100
AcDbEntity
  8
0
100
AcDbPolyline
 90
       30
 70
     1
 43
0.0
 10
1752.599734284283
 20
-513.3829642310231
 10
1772.599734284282
 20
-513.3829642310231
 42
0.4142135623730951
 10
1792.599734284283
 20
-493.3829642310231
 10
1792.599734284283
 20
-423.3829642310217
 42
0.4142135623730792
 10
1782.599734284283
 20
-413.382964231022
 10
1762.599734284279
 20
-413.3829642310217
 42
-0.41421356237308
 10
1692.599734284282
 20
-343.382964231022
 10
1692.599734284282
 20
-323.3829642310233
 42
0.4142135623730951
 10
1682.599734284282
 20
-313.3829642310232
 10
1642.599734284283
 20
-313.3829642310232
 42
0.4142135623730951
 10
1592.599734284282
 20
-363.3829642310232
 10
1592.599734284282
 20
-390.302254092762
 10
1651.399734284282
 20
-390.302254092762
 42
-0.9999999999999998
 10
1652.599734284282
 20
-390.302254092762
 10
1652.599734284282
 20
-393.4022540927623
 42
-0.9999999999999998
 10
1651.399734284282
 20
-393.4022540927623
 10
1592.599734284282
 20
-393.4022540927623
 10
1592.599734284282
 20
-493.3829642310231
 42
0.4142135623730951
 10
1612.599734284282
 20
-513.3829642310231
 10
1632.599734284282
 20
-513.3829642310231
 10
1632.599734284282
 20
-454.5829642310234
 42
-0.9999999999999998
 10
1632.599734284282
 20
-453.3829642310234
 10
1635.699734284283
 20
-453.3829642310234
 42
-0.9999999999999998
 10
1635.699734284283
 20
-454.5829642310234
 10
1635.699734284283
 20
-513.3829642310231
 10
1749.499734284283
 20
-513.3829642310236
 10
1749.499734284283
 20
-474.5829642310234
 42
-0.9999999999999998
 10
1749.499734284283
 20
-473.3829642310233
 10
1752.599734284283
 20
-473.3829642310237
 42
-0.9999999999999998
 10
1752.599734284283
 20
-474.5829642310234
  0
LWPOLYLINE
  5
138C
330
1F
100
AcDbEntity
  8
0
100
AcDbPolyline
 90
       30
 70
     1
 43
0.0
 10
1972.392247112859
 20
-439.5484754375875
 42
-0.4353011958066486
 10
1918.822423536169
 20
-389.676074656882
 10
1918.822423536169
 20
-323.382957359644
 42
0.4142135623730951
 10
1908.82242353617
 20
-313.382957359644
 10
1893.822423536169
 20
-313.382957359644
 42
0.4142135623730951
 10
1843.822423536169
 20
-363.382957359644
 10
1843.822423536169
 20
-390.3022472213826
 10
1902.622423536169
 20
-390.3022472213826
 42
-0.9999999999999998
 10
1903.822423536169
 20
-390.3022472213826
 10
1903.822423536169
 20
-393.4022472213826
 42
-0.9999999999999998
 10
1902.622423536169
 20
-393.4022472213826
 10
1843.822423536169
 20
-393.4022472213826
 10
1843.822423536169
 20
-493.3829573596434
 42
0.4142135623730951
 10
1863.822423536169
 20
-513.3829573596438
 10
1883.82242353617
 20
-513.3829573596438
 10
1883.82242353617
 20
-454.5829573596438
 42
-0.9999999999999998
 10
1883.82242353617
 20
-453.3829573596437
 10
1886.922423536169
 20
-453.3829573596437
 42
-0.9999999999999998
 10
1886.922423536169
 20
-454.5829573596438
 10
1886.922423536169
 20
-513.3829573596438
 10
2000.72242353617
 20
-513.3829573596439
 10
2000.72242353617
 20
-474.5829573596441
 42
-0.9999999999999998
 10
2000.72242353617
 20
-473.3829573596441
 10
2003.82242353617
 20
-473.3829573596441
 42
-0.9999999999999998
 10
2003.82242353617
 20
-474.5829573596441
 10
2003.82242353617
 20
-513.3829573596438
 10
2023.822423536169
 20
-513.3829573596438
 42
0.4142135623730951
 10
2043.82242353617
 20
-493.3829573596434
 10
2043.82242353617
 20
-445.1769413523734
 42
0.4353011958066493
 10
2033.108458820832
 20
-435.2024611962321
  0
LWPOLYLINE
  5
138D
330
1F
100
AcDbEntity
  8
0
100
AcDbPolyline
 90
       30
 70
     1
 43
0.0
 10
2223.425607220804
 20
-440.0883491070368
 42
-0.4353011958067589
 10
2169.855783644097
 20
-390.2159483263328
 10
2169.855783644097
 20
-323.9228310290948
 42
0.4142135623730951
 10
2159.855783644097
 20
-313.9228310290948
 10
2144.855783644097
 20
-313.9228310290948
 42
0.4142135623730951
 10
2094.855783644097
 20
-363.9228310290948
 10
2094.855783644097
 20
-390.8421208908334
 10
2153.655783644097
 20
-390.8421208908334
 42
-0.9999999999999998
 10
2154.855783644097
 20
-390.8421208908334
 10
2154.855783644097
 20
-393.9421208908336
 42
-0.9999999999999998
 10
2153.655783644097
 20
-393.9421208908336
 10
2094.855783644097
 20
-393.9421208908336
 10
2094.855783644097
 20
-493.9228310290944
 42
0.4142135623730951
 10
2114.855783644097
 20
-513.9228310290944
 10
2134.855783644097
 20
-513.9228310290945
 10
2134.855783644097
 20
-455.1228310290948
 42
-0.9999999999999998
 10
2134.855783644097
 20
-453.9228310290948
 10
2137.955783644096
 20
-453.9228310290948
 42
-0.9999999999999998
 10
2137.955783644096
 20
-455.1228310290946
 10
2137.955783644096
 20
-513.9228310290944
 10
2251.755783644096
 20
-513.9228310290948
 10
2251.755783644097
 20
-475.1228310290948
 42
-0.9999999999999998
 10
2251.755783644097
 20
-473.9228310290948
 10
2254.855783644097
 20
-473.922831029095
 42
-0.9999999999999998
 10
2254.855783644097
 20
-475.1228310290946
 10
2254.855783644097
 20
-513.9228310290944
 10
2274.855783644097
 20
-513.9228310290944
 42
0.4142135623730951
 10
2294.855783644097
 20
-493.9228310290944
 10
2294.855783644097
 20
-445.7168150218243
 42
0.4353011958066493
 10
2284.141818928759
 20
-435.7423348656833
  0
LWPOLYLINE
  5
138E
330
1F
100
AcDbEntity
  8
0
100
AcDbPolyline
 90
       30
 70
     1
 43
0.0
 10
2472.671303582217
 20
-440.0883525031248
 42
-0.4353011958067589
 10
2419.101480005509
 20
-390.2159517224209
 10
2419.101480005509
 20
-323.9228344251829
 42
0.4142135623730951
 10
2409.101480005509
 20
-313.9228344251829
 10
2394.101480005509
 20
-313.9228344251829
 42
0.4142135623730951
 10
2344.101480005509
 20
-363.9228344251829
 10
2344.101480005509
 20
-390.8421242869215
 10
2402.901480005509
 20
-390.8421242869215
 42
-0.9999999999999998
 10
2404.101480005509
 20
-390.8421242869215
 10
2404.101480005509
 20
-393.9421242869217
 42
-0.9999999999999998
 10
2402.901480005509
 20
-393.9421242869217
 10
2344.101480005509
 20
-393.9421242869217
 10
2344.101480005509
 20
-493.9228344251826
 42
0.4142135623730951
 10
2364.101480005509
 20
-513.9228344251826
 10
2384.101480005509
 20
-513.9228344251827
 10
2384.101480005509
 20
-455.1228344251827
 42
-0.9999999999999998
 10
2384.101480005509
 20
-453.9228344251827
 10
2387.201480005509
 20
-453.9228344251827
 42
-0.9999999999999998
 10
2387.201480005509
 20
-455.1228344251827
 10
2387.201480005509
 20
-513.9228344251826
 10
2501.00148000551
 20
-513.922834425183
 10
2501.00148000551
 20
-475.122834425183
 42
-0.9999999999999998
 10
2501.00148000551
 20
-473.922834425183
 10
2504.101480005509
 20
-473.922834425183
 42
-0.9999999999999998
 10
2504.101480005509
 20
-475.122834425183
 10
2504.101480005509
 20
-513.9228344251826
 10
2524.101480005509
 20
-513.9228344251826
 42
0.4142135623730951
 10
2544.101480005509
 20
-493.9228344251826
 10
2544.101480005509
 20
-445.7168184179122
 42
0.4353011958066493
 10
2533.387515290172
 20
-435.7423382617713
  0
LWPOLYLINE
  5
138F
330
1F
100
AcDbEntity
  8
0
100
AcDbPolyline
 90
       31
 70
     1
 43
0.0
 10
2723.389642712235
 20
-440.0883558992132
 42
-0.4353011958067589
 10
2669.819819135525
 20
-390.2159551185092
 10
2669.819819135525
 20
-323.9228378212711
 42
0.4142135623730951
 10
2659.819819135528
 20
-313.9228378212711
 10
2644.819819135525
 20
-313.9228378212711
 42
0.4142135623730951
 10
2594.819819135528
 20
-363.9228378212711
 10
2594.819819135528
 20
-390.8421276830095
 10
2653.619819135526
 20
-390.8421276830095
 42
-0.9999999999999998
 10
2654.819819135525
 20
-390.8421276830095
 10
2654.819819135525
 20
-393.9421276830099
 42
-0.9999999999999998
 10
2653.619819135526
 20
-393.9421276830099
 10
2594.819819135528
 20
-393.9421276830099
 10
2594.819819135528
 20
-493.9228378212708
 42
0.4142135623730951
 10
2614.819819135525
 20
-513.9228378212708
 10
2634.819819135525
 20
-513.9228378212708
 10
2634.819819135525
 20
-455.1228378212708
 42
-0.9999999999999998
 10
2634.819819135525
 20
-453.9228378212708
 10
2637.919819135527
 20
-453.9228378212708
 42
-0.9999999999999998
 10
2637.919819135527
 20
-455.1228378212708
 10
2637.919819135527
 20
-513.9228378212708
 10
2751.719819135525
 20
-513.9228378212711
 10
2751.719819135527
 20
-475.1228378212712
 42
-0.9999999999999998
 10
2751.719819135527
 20
-473.9228378212711
 10
2754.819819135527
 20
-473.9228378212711
 42
-0.9999999999999998
 10
2754.819819135527
 20
-475.1228378212712
 10
2754.819819135527
 20
-513.9228378212708
 10
2774.819819135525
 20
-513.9228378212708
 42
0.4142135623730951
 10
2794.819819135525
 20
-493.9228378212708
 10
2794.819819135525
 20
-445.7168218140006
 42
0.4353011958066493
 10
2784.105854420189
 20
-435.7423416578593
 10
2723.389642712215
 20
-440.0883558992145
  0
LWPOLYLINE
  5
1390
330
1F
100
AcDbEntity
  8
0
100
AcDbPolyline
 90
       31
 70
     1
 43
0.0
 10
2972.446196139813
 20
-440.0883592953012
 42
-0.4353011958067589
 10
2918.876372563106
 20
-390.2159585145972
 10
2918.876372563106
 20
-323.9228412173592
 42
0.4142135623730951
 10
2908.876372563106
 20
-313.922841217359
 10
2893.876372563106
 20
-313.922841217359
 42
0.4142135623730951
 10
2843.876372563105
 20
-363.922841217359
 10
2843.876372563105
 20
-390.842131079098
 10
2902.676372563105
 20
-390.842131079098
 42
-0.9999999999999998
 10
2903.876372563106
 20
-390.842131079098
 10
2903.876372563106
 20
-393.942131079098
 42
-0.9999999999999998
 10
2902.676372563105
 20
-393.942131079098
 10
2843.876372563105
 20
-393.942131079098
 10
2843.876372563105
 20
-493.9228412173587
 42
0.4142135623730951
 10
2863.876372563106
 20
-513.9228412173586
 10
2883.876372563106
 20
-513.922841217359
 10
2883.876372563106
 20
-455.122841217359
 42
-0.9999999999999998
 10
2883.876372563106
 20
-453.9228412173589
 10
2886.976372563103
 20
-453.9228412173589
 42
-0.9999999999999998
 10
2886.976372563103
 20
-455.1228412173592
 10
2886.976372563103
 20
-513.9228412173586
 10
3000.776372563106
 20
-513.922841217359
 10
3000.776372563106
 20
-475.1228412173591
 42
-0.9999999999999998
 10
3000.776372563106
 20
-473.9228412173591
 10
3003.876372563106
 20
-473.9228412173591
 42
-0.9999999999999998
 10
3003.876372563106
 20
-475.1228412173594
 10
3003.876372563106
 20
-513.9228412173586
 10
3023.876372563106
 20
-513.9228412173586
 42
0.4142135623730951
 10
3043.876372563107
 20
-493.9228412173587
 10
3043.876372563107
 20
-445.7168252100886
 42
0.4353011958066493
 10
3033.162407847767
 20
-435.7423450539475
 10
2972.446196139794
 20
-440.0883592953026
  0
LWPOLYLINE
  5
1391
330
1F
100
AcDbEntity
  8
0
100
AcDbPolyline
 90
       31
 70
     1
 43
0.0
 10
3225.997792140975
 20
-440.0883626913893
 42
-0.4353011958067589
 10
3172.427968564266
 20
-390.2159619106853
 10
3172.427968564266
 20
-323.9228446134472
 42
0.4142135623730951
 10
3162.427968564266
 20
-313.9228446134472
 10
3147.427968564266
 20
-313.9228446134472
 42
0.4142135623730951
 10
3097.427968564266
 20
-363.9228446134472
 10
3097.427968564266
 20
-390.8421344751862
 10
3156.227968564266
 20
-390.8421344751862
 42
-0.9999999999999998
 10
3157.427968564265
 20
-390.8421344751862
 10
3157.427968564265
 20
-393.9421344751862
 42
-0.9999999999999998
 10
3156.227968564266
 20
-393.9421344751862
 10
3097.427968564266
 20
-393.9421344751862
 10
3097.427968564266
 20
-493.9228446134467
 42
0.4142135623730951
 10
3117.427968564266
 20
-513.9228446134468
 10
3137.427968564266
 20
-513.922844613447
 10
3137.427968564266
 20
-455.1228446134471
 42
-0.9999999999999998
 10
3137.427968564266
 20
-453.9228446134472
 10
3140.527968564266
 20
-453.9228446134472
 42
-0.9999999999999998
 10
3140.527968564266
 20
-455.1228446134471
 10
3140.527968564266
 20
-513.9228446134468
 10
3254.327968564266
 20
-513.9228446134473
 10
3254.327968564266
 20
-475.1228446134473
 42
-0.9999999999999998
 10
3254.327968564266
 20
-473.9228446134474
 10
3257.427968564266
 20
-473.9228446134474
 42
-0.9999999999999998
 10
3257.427968564266
 20
-475.1228446134473
 10
3257.427968564266
 20
-513.9228446134468
 10
3277.427968564265
 20
-513.9228446134468
 42
0.4142135623730951
 10
3297.427968564266
 20
-493.9228446134467
 10
3297.427968564266
 20
-445.7168286061767
 42
0.4353011958066493
 10
3286.714003848928
 20
-435.7423484500356
 10
3225.997792140953
 20
-440.088362691391
  0
LWPOLYLINE
  5
1392
330
1F
100
AcDbEntity
  8
0
100
AcDbPolyline
 90
       30
 70
     1
 43
0.0
 10
3472.567416252479
 20
-440.0883591368948
 42
-0.4353011958067589
 10
3418.997592675772
 20
-390.2159583561908
 10
3418.997592675772
 20
-323.9228410589527
 42
0.4142135623730951
 10
3408.997592675773
 20
-313.9228410589526
 10
3393.997592675772
 20
-313.9228410589526
 42
0.4142135623730951
 10
3343.997592675772
 20
-363.9228410589527
 10
3343.997592675772
 20
-390.8421309206915
 10
3402.797592675771
 20
-390.8421309206915
 42
-0.9999999999999998
 10
3403.997592675772
 20
-390.8421309206915
 10
3403.997592675772
 20
-393.9421309206915
 42
-0.9999999999999998
 10
3402.797592675771
 20
-393.9421309206915
 10
3343.997592675772
 20
-393.9421309206915
 10
3343.997592675772
 20
-493.9228410589524
 42
0.4142135623730951
 10
3363.997592675771
 20
-513.9228410589525
 10
3383.997592675772
 20
-513.9228410589528
 10
3383.997592675772
 20
-455.1228410589525
 42
-0.9999999999999998
 10
3383.997592675772
 20
-453.9228410589528
 10
3387.097592675772
 20
-453.9228410589524
 42
-0.9999999999999998
 10
3387.097592675772
 20
-455.1228410589525
 10
3387.097592675772
 20
-513.9228410589525
 10
3500.897592675773
 20
-513.9228410589528
 10
3500.897592675773
 20
-475.1228410589531
 42
-0.9999999999999998
 10
3500.897592675773
 20
-473.9228410589531
 10
3503.997592675773
 20
-473.9228410589531
 42
-0.9999999999999998
 10
3503.997592675773
 20
-475.1228410589531
 10
3503.997592675773
 20
-513.9228410589525
 10
3523.997592675772
 20
-513.9228410589525
 42
0.4142135623730951
 10
3543.997592675772
 20
-493.9228410589524
 10
3543.997592675772
 20
-445.7168250516827
 42
0.4353011958066493
 10
3533.283627960435
 20
-435.7423448955414
  0
LWPOLYLINE
  5
1393
330
1F
100
AcDbEntity
  8
0
100
AcDbPolyline
 90
       31
 70
     1
 43
0.0
 10
3726.119012253641
 20
-440.088362532983
 42
-0.4353011958067589
 10
3672.549188676934
 20
-390.215961752279
 10
3672.549188676934
 20
-323.9228444550408
 42
0.4142135623730951
 10
3662.549188676933
 20
-313.9228444550408
 10
3647.549188676932
 20
-313.9228444550408
 42
0.4142135623730951
 10
3597.549188676933
 20
-363.9228444550408
 10
3597.549188676933
 20
-390.8421343167798
 10
3656.349188676933
 20
-390.8421343167798
 42
-0.9999999999999998
 10
3657.549188676931
 20
-390.8421343167798
 10
3657.549188676934
 20
-393.9421343167798
 42
-0.9999999999999998
 10
3656.349188676933
 20
-393.9421343167798
 10
3597.549188676933
 20
-393.9421343167798
 10
3597.549188676933
 20
-493.9228444550407
 42
0.4142135623730951
 10
3617.549188676934
 20
-513.9228444550408
 10
3637.549188676933
 20
-513.9228444550408
 10
3637.549188676933
 20
-455.1228444550408
 42
-0.9999999999999998
 10
3637.549188676933
 20
-453.9228444550408
 10
3640.649188676932
 20
-453.9228444550408
 42
-0.9999999999999998
 10
3640.649188676932
 20
-455.1228444550408
 10
3640.649188676932
 20
-513.9228444550408
 10
3754.449188676932
 20
-513.9228444550409
 10
3754.449188676933
 20
-475.1228444550409
 42
-0.9999999999999998
 10
3754.449188676933
 20
-473.9228444550408
 10
3757.549188676934
 20
-473.9228444550408
 42
-0.9999999999999998
 10
3757.549188676934
 20
-475.1228444550409
 10
3757.549188676934
 20
-513.9228444550408
 10
3777.549188676933
 20
-513.9228444550408
 42
0.4142135623730951
 10
3797.549188676934
 20
-493.9228444550407
 10
3797.549188676934
 20
-445.7168284477704
 42
0.4353011958066493
 10
3786.835223961594
 20
-435.7423482916294
 10
3726.119012253621
 20
-440.0883625329843
  0
LWPOLYLINE
  5
1394
330
1F
100
AcDbEntity
  8
0
100
AcDbPolyline
 90
       30
 70
     1
 43
0.0
 10
4013.969286058563
 20
-413.9228375836599
 42
-0.4142135623730951
 10
3943.969286058564
 20
-343.9228375836601
 10
3943.969286058564
 20
-323.9228375836614
 42
0.4142135623730951
 10
3933.969286058565
 20
-313.9228375836613
 10
3893.969286058565
 20
-313.9228375836613
 42
0.4142135623730951
 10
3843.969286058565
 20
-363.9228375836613
 10
3843.969286058565
 20
-390.8421274454001
 10
3902.769286058565
 20
-390.8421274454001
 42
-0.9999999999999998
 10
3903.969286058565
 20
-390.8421274454001
 10
3903.969286058565
 20
-393.9421274454002
 42
-0.9999999999999998
 10
3902.769286058565
 20
-393.9421274454002
 10
3843.969286058565
 20
-393.9421274454002
 10
3843.969286058565
 20
-493.9228375836611
 42
0.4142135623730951
 10
3863.969286058566
 20
-513.9228375836611
 10
3883.969286058565
 20
-513.9228375836613
 10
3883.969286058565
 20
-455.1228375836613
 42
-0.9999999999999998
 10
3883.969286058565
 20
-453.9228375836613
 10
3887.069286058565
 20
-453.9228375836613
 42
-0.9999999999999998
 10
3887.069286058565
 20
-455.1228375836613
 10
3887.069286058565
 20
-513.9228375836611
 10
4000.869286058565
 20
-513.9228375836613
 10
4000.869286058565
 20
-475.1228375836615
 42
-0.9999999999999998
 10
4000.869286058565
 20
-473.9228375836614
 10
4003.969286058564
 20
-473.9228375836614
 42
-0.9999999999999998
 10
4003.969286058564
 20
-475.1228375836615
 10
4003.969286058564
 20
-513.9228375836611
 10
4023.969286058565
 20
-513.9228375836611
 42
0.4142135623730951
 10
4043.969286058564
 20
-493.9228375836611
 10
4043.969286058564
 20
-423.9228375836598
 42
0.4142135623730792
 10
4033.969286058565
 20
-413.9228375836599
  0
LWPOLYLINE
  5
1395
330
1F
100
AcDbEntity
  8
0
100
AcDbPolyline
 90
       33
 70
     1
 43
0.0
 10
4268.49102377997
 20
-386.9498063146932
 42
-0.4146232187667799
 10
4218.421101212115
 20
-336.9498552063721
 10
4218.421101212115
 20
-325.1305015958089
 42
0.3669540540421649
 10
4210.053798291311
 20
-315.2646868677907
 42
0.0410239732730274
 10
4193.726827499348
 20
-313.9228341479742
 10
4143.726827499349
 20
-313.9228341479742
 42
0.4142135623730951
 10
4093.726827499349
 20
-363.9228341479742
 10
4093.726827499349
 20
-390.8421240097128
 10
4152.526827499348
 20
-390.8421240097128
 42
-0.9999999999999998
 10
4153.726827499348
 20
-390.8421240097128
 10
4153.726827499348
 20
-393.9421240097128
 42
-0.9999999999999998
 10
4152.526827499348
 20
-393.9421240097128
 10
4093.726827499349
 20
-393.9421240097128
 10
4093.726827499349
 20
-493.922834147974
 42
0.4142135623730951
 10
4113.726827499348
 20
-513.9228341479739
 10
4133.726827499351
 20
-513.9228341479739
 10
4133.726827499351
 20
-455.1228341479744
 42
-0.9999999999999998
 10
4133.726827499351
 20
-453.9228341479744
 10
4136.82682749935
 20
-453.9228341479744
 42
-0.9999999999999998
 10
4136.82682749935
 20
-455.1228341479744
 10
4136.82682749935
 20
-513.9228341479739
 10
4250.626827499348
 20
-513.9228341479744
 10
4250.626827499348
 20
-475.1228341479746
 42
-0.9999999999999998
 10
4250.626827499348
 20
-473.9228341479747
 10
4253.726827499348
 20
-473.9228341479747
 42
-0.9999999999999998
 10
4253.726827499348
 20
-475.1228341479746
 10
4253.726827499348
 20
-513.9228341479739
 10
4273.726827499348
 20
-513.9228341479739
 42
0.4142135623730951
 10
4293.726827499348
 20
-493.922834147974
 10
4293.726827499348
 20
-413.9228341479741
 42
0.0475209019735091
 10
4291.928370452654
 20
-395.0427663093839
 42
0.3600089632281006
 10
4282.094231643743
 20
-386.9307828715788
 10
4268.491023780025
 20
-386.9498063146932
  0
LWPOLYLINE
  5
1396
330
1F
100
AcDbEntity
  8
0
100
AcDbPolyline
 90
       33
 70
     1
 43
0.0
 10
4518.241326302167
 20
-386.9498028790033
 42
-0.4146232187667799
 10
4468.171403734312
 20
-336.9498517706821
 10
4468.171403734312
 20
-325.1304981601192
 42
0.3669540540421649
 10
4459.804100813509
 20
-315.2646834321007
 42
0.0410239732730274
 10
4443.477130021547
 20
-313.9228307122845
 10
4393.477130021547
 20
-313.9228307122845
 42
0.4142135623730951
 10
4343.477130021547
 20
-363.9228307122845
 10
4343.477130021547
 20
-390.8421205740233
 10
4402.277130021547
 20
-390.8421205740233
 42
-0.9999999999999998
 10
4403.477130021547
 20
-390.8421205740233
 10
4403.477130021547
 20
-393.9421205740233
 42
-0.9999999999999998
 10
4402.277130021547
 20
-393.9421205740233
 10
4343.477130021547
 20
-393.9421205740233
 10
4343.477130021547
 20
-493.9228307122843
 42
0.4142135623730951
 10
4363.477130021546
 20
-513.9228307122841
 10
4383.477130021547
 20
-513.9228307122846
 10
4383.477130021547
 20
-455.1228307122846
 42
-0.9999999999999998
 10
4383.477130021547
 20
-453.9228307122846
 10
4386.577130021548
 20
-453.9228307122846
 42
-0.9999999999999998
 10
4386.577130021548
 20
-455.1228307122843
 10
4386.577130021548
 20
-513.9228307122841
 10
4500.377130021547
 20
-513.9228307122846
 10
4500.377130021547
 20
-475.1228307122848
 42
-0.9999999999999998
 10
4500.377130021547
 20
-473.9228307122847
 10
4503.477130021547
 20
-473.9228307122847
 42
-0.9999999999999998
 10
4503.477130021547
 20
-475.1228307122848
 10
4503.477130021547
 20
-513.9228307122841
 10
4523.477130021547
 20
-513.9228307122841
 42
0.4142135623730951
 10
4543.477130021547
 20
-493.9228307122843
 10
4543.477130021547
 20
-413.9228307122844
 42
0.0475209019735091
 10
4541.678672974853
 20
-395.0427628736941
 42
0.3600089632281006
 10
4531.844534165942
 20
-386.9307794358892
 10
4518.241326302223
 20
-386.9498028790037
  0
LWPOLYLINE
  5
1397
330
1F
100
AcDbEntity
  8
0
100
AcDbPolyline
 90
       32
 70
     1
 43
0.0
 10
4755.597515006773
 20
-513.9228289944421
 10
4775.597515006773
 20
-513.9228289944421
 42
0.4142135623730951
 10
4795.597515006774
 20
-493.9228289944422
 10
4795.597515006774
 20
-413.9228289944421
 42
0.1219791590380911
 10
4784.040842749588
 20
-367.2561623277768
 42
0.2781792779259733
 10
4775.196509975307
 20
-361.9228289944434
 10
4773.456502780002
 20
-361.9228289944422
 42
-0.4142135623730951
 10
4743.456502780002
 20
-331.9228289944422
 10
4743.456502780002
 20
-332.2729848746476
 42
0.2920606544520822
 10
4737.663056977028
 20
-323.2007799724491
 42
0.1089701868172565
 10
4695.597515006773
 20
-313.9228289944422
 10
4645.597515006773
 20
-313.9228289944422
 42
0.4142135623730951
 10
4595.597515006773
 20
-363.9228289944422
 10
4595.597515006773
 20
-390.842118856181
 10
4654.397515006773
 20
-390.842118856181
 42
-0.9999999999999998
 10
4655.597515006774
 20
-390.842118856181
 10
4655.597515006774
 20
-393.942118856181
 42
-0.9999999999999998
 10
4654.397515006773
 20
-393.942118856181
 10
4595.597515006773
 20
-393.942118856181
 10
4595.597515006773
 20
-493.9228289944422
 42
0.4142135623730951
 10
4615.597515006773
 20
-513.9228289944421
 10
4635.597515006773
 20
-513.9228289944421
 10
4635.597515006773
 20
-455.1228289944424
 42
-0.9999999999999998
 10
4635.597515006773
 20
-453.9228289944423
 10
4638.697515006774
 20
-453.9228289944423
 42
-0.9999999999999998
 10
4638.697515006774
 20
-455.1228289944422
 10
4638.697515006774
 20
-513.9228289944421
 10
4752.497515006773
 20
-513.9228289944424
 10
4752.497515006773
 20
-475.1228289944426
 42
-0.9999999999999998
 10
4752.497515006773
 20
-473.9228289944425
 10
4755.597515006773
 20
-473.9228289944425
 42
-0.9999999999999998
 10
4755.597515006773
 20
-475.1228289944424
  0
LWPOLYLINE
  5
1398
330
1F
100
AcDbEntity
  8
0
100
AcDbPolyline
 90
       26
 70
     1
 43
0.0
 10
4885.122852422461
 20
-513.922836704946
 10
4885.122852422461
 20
-455.1228367049458
 42
-0.9999999999999998
 10
4885.122852422461
 20
-453.9228367049458
 10
4888.222852422459
 20
-453.9228367049458
 42
-0.9999999999999998
 10
4888.222852422459
 20
-455.122836704946
 10
4888.222852422459
 20
-513.9228367049456
 10
5002.022852422459
 20
-513.922836704946
 10
5002.022852422459
 20
-475.122836704946
 42
-0.9999999999999998
 10
5002.022852422459
 20
-473.9228367049459
 10
5005.122852422459
 20
-473.9228367049459
 42
-0.9999999999999998
 10
5005.122852422459
 20
-475.1228367049462
 10
5005.122852422459
 20
-513.9228367049456
 10
5025.122852422459
 20
-513.9228367049456
 42
0.4142135623730951
 10
5045.122852422458
 20
-493.9228367049458
 10
5045.122852422458
 20
-413.9228367049458
 42
0.4142135623730951
 10
4945.122852422461
 20
-313.9228367049458
 10
4895.122852422461
 20
-313.9228367049458
 42
0.4142135623730951
 10
4845.122852422459
 20
-363.9228367049458
 10
4845.122852422459
 20
-390.8421265666848
 10
4903.92285242246
 20
-390.8421265666848
 42
-0.9999999999999998
 10
4905.122852422461
 20
-390.8421265666848
 10
4905.122852422461
 20
-393.9421265666848
 42
-0.9999999999999998
 10
4903.92285242246
 20
-393.9421265666848
 10
4845.122852422459
 20
-393.9421265666848
 10
4845.122852422459
 20
-493.9228367049458
 42
0.4142135623730951
 10
4865.122852422461
 20
-513.9228367049456
  0
LWPOLYLINE
  5
1399
330
1F
100
AcDbEntity
  8
0
100
AcDbPolyline
 90
       96
 70
     1
 43
0.0
 10
906.4427515365492
 20
-196.1216503172494
 10
896.4427442516919
 20
-196.1216503172489
 10
896.4427442516919
 20
-187.3216503172489
 42
0.9999999999999998
 10
896.4427442516919
 20
-186.1216503172489
 10
893.3427442516919
 20
-186.1216503172489
 42
0.9999999999999998
 10
893.3427442516919
 20
-187.3216503172491
 10
893.3427442516919
 20
-196.1216503172489
 10
883.3427442516919
 20
-196.1216503172487
 10
883.3427442516919
 20
-187.3216503172489
 42
0.9999999999999998
 10
883.3427442516919
 20
-186.1216503172489
 10
878.2427442516919
 20
-186.1216503172489
 10
878.2427442516919
 20
-136.1216503172489
 42
-0.4142135623730951
 10
888.2427442516917
 20
-126.1216503172491
 10
1072.242744251692
 20
-126.1216503172489
 42
-0.4142135623730951
 10
1082.242744251692
 20
-136.1216503172489
 10
1082.242744251692
 20
-186.1216503172489
 10
1076.742846239697
 20
-186.1216503172489
 42
0.9999999999999998
 10
1076.742846239697
 20
-187.3216503172491
 10
1076.742846239697
 20
-196.1216503172494
 10
1066.74283895484
 20
-196.1216503172489
 10
1066.74283895484
 20
-187.3216503172489
 42
0.9999999999999998
 10
1066.74283895484
 20
-186.1216503172489
 10
1063.64283895484
 20
-186.1216503172489
 42
0.9999999999999998
 10
1063.64283895484
 20
-187.3216503172491
 10
1063.64283895484
 20
-196.1216503172494
 10
1053.642831669982
 20
-196.1216503172489
 10
1053.642831669982
 20
-187.3216503172489
 42
0.9999999999999998
 10
1053.642831669982
 20
-186.1216503172489
 10
1050.542831669982
 20
-186.1216503172489
 42
0.9999999999999998
 10
1050.542831669982
 20
-187.3216503172491
 10
1050.542831669982
 20
-196.1216503172489
 10
1040.542824385125
 20
-196.1216503172489
 10
1040.542824385125
 20
-187.3216503172489
 42
0.9999999999999998
 10
1040.542824385125
 20
-186.1216503172489
 10
1037.442824385125
 20
-186.1216503172489
 42
0.9999999999999998
 10
1037.442824385125
 20
-187.3216503172491
 10
1037.442824385125
 20
-196.1216503172487
 10
1027.442817100267
 20
-196.1216503172489
 10
1027.442817100267
 20
-187.3216503172489
 42
0.9999999999999998
 10
1027.442817100267
 20
-186.1216503172489
 10
1024.342817100267
 20
-186.1216503172489
 42
0.9999999999999998
 10
1024.342817100267
 20
-187.3216503172491
 10
1024.342817100267
 20
-196.1216503172489
 10
1014.34280981541
 20
-196.1216503172489
 10
1014.34280981541
 20
-187.3216503172489
 42
0.9999999999999998
 10
1014.34280981541
 20
-186.1216503172489
 10
1011.24280981541
 20
-186.1216503172489
 42
0.9999999999999998
 10
1011.24280981541
 20
-187.3216503172491
 10
1011.24280981541
 20
-196.1216503172494
 10
1001.242802530552
 20
-196.1216503172489
 10
1001.242802530552
 20
-187.3216503172489
 42
0.9999999999999998
 10
1001.242802530552
 20
-186.1216503172489
 10
998.1428025305524
 20
-186.1216503172489
 42
0.9999999999999998
 10
998.1428025305524
 20
-187.3216503172491
 10
998.1428025305524
 20
-196.1216503172489
 10
988.1427952456947
 20
-196.1216503172489
 10
988.1427952456947
 20
-187.3216503172489
 42
0.9999999999999998
 10
988.1427952456947
 20
-186.1216503172489
 10
985.0427952456946
 20
-186.1216503172489
 42
0.9999999999999998
 10
985.0427952456946
 20
-187.3216503172491
 10
985.0427952456946
 20
-196.1216503172489
 10
975.0427879608372
 20
-196.1216503172489
 10
975.0427879608372
 20
-187.3216503172489
 42
0.9999999999999998
 10
975.0427879608372
 20
-186.1216503172489
 10
971.9427879608373
 20
-186.1216503172489
 42
0.9999999999999998
 10
971.9427879608373
 20
-187.3216503172491
 10
971.9427879608373
 20
-196.1216503172489
 10
961.9427806759798
 20
-196.1216503172489
 10
961.9427806759798
 20
-187.3216503172489
 42
0.9999999999999998
 10
961.9427806759798
 20
-186.1216503172489
 10
958.8427806759796
 20
-186.1216503172489
 42
0.9999999999999998
 10
958.8427806759796
 20
-187.3216503172491
 10
958.8427806759796
 20
-196.1216503172489
 10
948.8427733911221
 20
-196.1216503172489
 10
948.8427733911221
 20
-187.3216503172489
 42
0.9999999999999998
 10
948.8427733911221
 20
-186.1216503172489
 10
945.742773391122
 20
-186.1216503172489
 42
0.9999999999999998
 10
945.742773391122
 20
-187.3216503172491
 10
945.742773391122
 20
-196.1216503172489
 10
935.7427661062642
 20
-196.1216503172489
 10
935.7427661062642
 20
-187.3216503172489
 42
0.9999999999999998
 10
935.7427661062642
 20
-186.1216503172489
 10
932.6427661062643
 20
-186.1216503172489
 42
0.9999999999999998
 10
932.6427661062643
 20
-187.3216503172491
 10
932.6427661062643
 20
-196.1216503172489
 10
922.6427588214074
 20
-196.1216503172489
 10
922.6427588214074
 20
-187.3216503172489
 42
0.9999999999999998
 10
922.6427588214074
 20
-186.1216503172489
 10
919.5427588214066
 20
-186.1216503172489
 42
0.9999999999999998
 10
919.5427588214066
 20
-187.3216503172491
 10
919.5427588214066
 20
-196.1216503172487
 10
909.5427515365496
 20
-196.1216503172489
 10
909.5427515365496
 20
-187.3216503172489
 42
0.9999999999999998
 10
909.5427515365496
 20
-186.1216503172489
 10
906.4427515365494
 20
-186.1216503172489
 42
0.9999999999999998
 10
906.4427515365494
 20
-187.3216503172491
  0
LWPOLYLINE
  5
139A
330
1F
100
AcDbEntity
  8
0
100
AcDbPolyline
 90
       96
 70
     1
 43
0.0
 10
1278.358789221505
 20
-196.1216503172494
 10
1268.358781936647
 20
-196.1216503172489
 10
1268.358781936647
 20
-187.3216503172489
 42
0.9999999999999998
 10
1268.358781936647
 20
-186.1216503172489
 10
1265.258781936648
 20
-186.1216503172489
 42
0.9999999999999998
 10
1265.258781936648
 20
-187.3216503172491
 10
1265.258781936648
 20
-196.1216503172489
 10
1255.25877465179
 20
-196.1216503172489
 10
1255.25877465179
 20
-187.3216503172489
 42
0.9999999999999998
 10
1255.25877465179
 20
-186.1216503172489
 10
1252.15877465179
 20
-186.1216503172489
 42
0.9999999999999998
 10
1252.15877465179
 20
-187.3216503172491
 10
1252.15877465179
 20
-196.1216503172489
 10
1242.158767366932
 20
-196.1216503172489
 10
1242.158767366932
 20
-187.3216503172489
 42
0.9999999999999998
 10
1242.158767366932
 20
-186.1216503172489
 10
1239.058767366932
 20
-186.1216503172489
 42
0.9999999999999998
 10
1239.058767366932
 20
-187.3216503172491
 10
1239.058767366932
 20
-196.1216503172489
 10
1229.058760082075
 20
-196.1216503172489
 10
1229.058760082075
 20
-187.3216503172489
 42
0.9999999999999998
 10
1229.058760082075
 20
-186.1216503172489
 10
1225.958760082074
 20
-186.1216503172489
 42
0.9999999999999998
 10
1225.958760082074
 20
-187.3216503172491
 10
1225.958760082074
 20
-196.1216503172489
 10
1215.958752797217
 20
-196.1216503172489
 10
1215.958752797217
 20
-187.3216503172489
 42
0.9999999999999998
 10
1215.958752797217
 20
-186.1216503172489
 10
1212.858752797217
 20
-186.1216503172489
 42
0.9999999999999998
 10
1212.858752797217
 20
-187.3216503172491
 10
1212.858752797217
 20
-196.1216503172489
 10
1202.85874551236
 20
-196.1216503172489
 10
1202.85874551236
 20
-187.3216503172489
 42
0.9999999999999998
 10
1202.85874551236
 20
-186.1216503172489
 10
1199.75874551236
 20
-186.1216503172489
 42
0.9999999999999998
 10
1199.75874551236
 20
-187.3216503172491
 10
1199.75874551236
 20
-196.1216503172489
 10
1189.758738227502
 20
-196.1216503172489
 10
1189.758738227502
 20
-187.3216503172489
 42
0.9999999999999998
 10
1189.758738227502
 20
-186.1216503172489
 10
1186.658738227502
 20
-186.1216503172489
 42
0.9999999999999998
 10
1186.658738227502
 20
-187.3216503172491
 10
1186.658738227502
 20
-196.1216503172487
 10
1176.658730942644
 20
-196.1216503172489
 10
1176.658730942644
 20
-187.3216503172489
 42
0.9999999999999998
 10
1176.658730942644
 20
-186.1216503172489
 10
1173.558730942644
 20
-186.1216503172489
 42
0.9999999999999998
 10
1173.558730942644
 20
-187.3216503172491
 10
1173.558730942644
 20
-196.1216503172494
 10
1163.558723657787
 20
-196.1216503172489
 10
1163.558723657787
 20
-187.3216503172489
 42
0.9999999999999998
 10
1163.558723657787
 20
-186.1216503172489
 10
1160.458723657787
 20
-186.1216503172489
 42
0.9999999999999998
 10
1160.458723657787
 20
-187.3216503172491
 10
1160.458723657787
 20
-196.1216503172489
 10
1150.458723657787
 20
-196.1216503172489
 10
1150.458723657787
 20
-187.3216503172489
 42
0.9999999999999998
 10
1150.458723657787
 20
-186.1216503172489
 10
1145.358723657787
 20
-186.1216503172489
 10
1145.358723657787
 20
-136.1216503172489
 42
-0.4142135623730951
 10
1155.358723657787
 20
-126.1216503172491
 10
1339.358723657787
 20
-126.1216503172489
 42
-0.4142135623730951
 10
1349.358723657787
 20
-136.1216503172489
 10
1349.358723657787
 20
-186.1216503172489
 10
1343.858825645793
 20
-186.1216503172489
 42
0.9999999999999998
 10
1343.858825645793
 20
-187.3216503172491
 10
1343.858825645793
 20
-196.1216503172494
 10
1333.858818360935
 20
-196.1216503172489
 10
1333.858818360935
 20
-187.3216503172489
 42
0.9999999999999998
 10
1333.858818360935
 20
-186.1216503172489
 10
1330.758818360935
 20
-186.1216503172489
 42
0.9999999999999998
 10
1330.758818360935
 20
-187.3216503172491
 10
1330.758818360935
 20
-196.1216503172494
 10
1320.758811076077
 20
-196.1216503172489
 10
1320.758811076077
 20
-187.3216503172489
 42
0.9999999999999998
 10
1320.758811076077
 20
-186.1216503172489
 10
1317.658811076078
 20
-186.1216503172489
 42
0.9999999999999998
 10
1317.658811076078
 20
-187.3216503172491
 10
1317.658811076078
 20
-196.1216503172489
 10
1307.65880379122
 20
-196.1216503172489
 10
1307.65880379122
 20
-187.3216503172489
 42
0.9999999999999998
 10
1307.65880379122
 20
-186.1216503172489
 10
1304.55880379122
 20
-186.1216503172489
 42
0.9999999999999998
 10
1304.55880379122
 20
-187.3216503172491
 10
1304.55880379122
 20
-196.1216503172487
 10
1294.558796506362
 20
-196.1216503172489
 10
1294.558796506362
 20
-187.3216503172489
 42
0.9999999999999998
 10
1294.558796506362
 20
-186.1216503172489
 10
1291.458796506362
 20
-186.1216503172489
 42
0.9999999999999998
 10
1291.458796506362
 20
-187.3216503172491
 10
1291.458796506362
 20
-196.1216503172489
 10
1281.458789221505
 20
-196.1216503172489
 10
1281.458789221505
 20
-187.3216503172489
 42
0.9999999999999998
 10
1281.458789221505
 20
-186.1216503172489
 10
1278.358789221505
 20
-186.1216503172489
 42
0.9999999999999998
 10
1278.358789221505
 20
-187.3216503172491
  0
LWPOLYLINE
  5
139B
330
1F
100
AcDbEntity
  8
0
100
AcDbPolyline
 90
       96
 70
     1
 43
0.0
 10
1443.677470765131
 20
-196.1216503172494
 10
1443.677470765131
 20
-187.3216503172491
 42
0.9999999999999998
 10
1443.677470765131
 20
-186.1216503172494
 10
1440.577470765131
 20
-186.121650317249
 42
0.9999999999999998
 10
1440.577470765131
 20
-187.3216503172491
 10
1440.577470765131
 20
-196.1216503172489
 10
1430.577463480273
 20
-196.1216503172494
 10
1430.577463480273
 20
-187.3216503172491
 42
0.9999999999999998
 10
1430.577463480273
 20
-186.1216503172494
 10
1427.477463480273
 20
-186.121650317249
 42
0.9999999999999998
 10
1427.477463480273
 20
-187.3216503172491
 10
1427.477463480273
 20
-196.1216503172494
 10
1417.477456195416
 20
-196.1216503172494
 10
1417.477456195416
 20
-187.3216503172491
 42
0.9999999999999998
 10
1417.477456195416
 20
-186.1216503172494
 10
1414.377456195416
 20
-186.121650317249
 42
0.9999999999999998
 10
1414.377456195416
 20
-187.3216503172491
 10
1414.377456195416
 20
-196.1216503172494
 10
1404.377456195416
 20
-196.1216503172494
 10
1404.377456195416
 20
-187.3216503172491
 42
0.9999999999999998
 10
1404.377456195416
 20
-186.1216503172494
 10
1399.277456195416
 20
-186.1216503172492
 10
1399.277456195416
 20
-146.1216503172494
 42
-0.4142135623730951
 10
1409.277456195416
 20
-136.1216503172494
 10
1593.277456195416
 20
-136.1216503172494
 42
-0.4142135623730951
 10
1603.277456195416
 20
-146.1216503172494
 10
1603.277456195416
 20
-186.1216503172492
 10
1597.777558183422
 20
-186.121650317249
 42
0.9999999999999998
 10
1597.777558183422
 20
-187.3216503172491
 10
1597.777558183422
 20
-196.1216503172494
 10
1587.777550898564
 20
-196.1216503172494
 10
1587.777550898564
 20
-187.3216503172491
 42
0.9999999999999998
 10
1587.777550898564
 20
-186.1216503172494
 10
1584.677550898564
 20
-186.121650317249
 42
0.9999999999999998
 10
1584.677550898564
 20
-187.3216503172491
 10
1584.677550898564
 20
-196.1216503172494
 10
1574.677543613707
 20
-196.1216503172494
 10
1574.677543613707
 20
-187.3216503172491
 42
0.9999999999999998
 10
1574.677543613707
 20
-186.1216503172494
 10
1571.577543613706
 20
-186.121650317249
 42
0.9999999999999998
 10
1571.577543613706
 20
-187.3216503172491
 10
1571.577543613706
 20
-196.1216503172494
 10
1561.577536328849
 20
-196.1216503172494
 10
1561.577536328849
 20
-187.3216503172491
 42
0.9999999999999998
 10
1561.577536328849
 20
-186.1216503172494
 10
1558.477536328848
 20
-186.121650317249
 42
0.9999999999999998
 10
1558.477536328848
 20
-187.3216503172491
 10
1558.477536328848
 20
-196.1216503172489
 10
1548.477529043991
 20
-196.1216503172494
 10
1548.477529043991
 20
-187.3216503172491
 42
0.9999999999999998
 10
1548.477529043991
 20
-186.1216503172494
 10
1545.377529043992
 20
-186.121650317249
 42
0.9999999999999998
 10
1545.377529043992
 20
-187.3216503172491
 10
1545.377529043992
 20
-196.1216503172494
 10
1535.377521759134
 20
-196.1216503172494
 10
1535.377521759134
 20
-187.3216503172491
 42
0.9999999999999998
 10
1535.377521759134
 20
-186.1216503172494
 10
1532.277521759134
 20
-186.121650317249
 42
0.9999999999999998
 10
1532.277521759134
 20
-187.3216503172491
 10
1532.277521759134
 20
-196.1216503172494
 10
1522.277514474276
 20
-196.1216503172494
 10
1522.277514474276
 20
-187.3216503172491
 42
0.9999999999999998
 10
1522.277514474276
 20
-186.1216503172494
 10
1519.177514474276
 20
-186.121650317249
 42
0.9999999999999998
 10
1519.177514474276
 20
-187.3216503172491
 10
1519.177514474276
 20
-196.1216503172494
 10
1509.177507189418
 20
-196.1216503172494
 10
1509.177507189418
 20
-187.3216503172491
 42
0.9999999999999998
 10
1509.177507189418
 20
-186.1216503172494
 10
1506.077507189418
 20
-186.121650317249
 42
0.9999999999999998
 10
1506.077507189418
 20
-187.3216503172491
 10
1506.077507189418
 20
-196.1216503172494
 10
1496.077499904561
 20
-196.1216503172494
 10
1496.077499904561
 20
-187.3216503172491
 42
0.9999999999999998
 10
1496.077499904561
 20
-186.1216503172494
 10
1492.977499904561
 20
-186.121650317249
 42
0.9999999999999998
 10
1492.977499904561
 20
-187.3216503172491
 10
1492.977499904561
 20
-196.1216503172494
 10
1482.977492619704
 20
-196.1216503172494
 10
1482.977492619704
 20
-187.3216503172491
 42
0.9999999999999998
 10
1482.977492619704
 20
-186.1216503172494
 10
1479.877492619703
 20
-186.121650317249
 42
0.9999999999999998
 10
1479.877492619703
 20
-187.3216503172491
 10
1479.877492619703
 20
-196.1216503172494
 10
1469.877485334846
 20
-196.1216503172494
 10
1469.877485334846
 20
-187.3216503172491
 42
0.9999999999999998
 10
1469.877485334846
 20
-186.1216503172494
 10
1466.777485334846
 20
-186.121650317249
 42
0.9999999999999998
 10
1466.777485334846
 20
-187.3216503172491
 10
1466.777485334846
 20
-196.1216503172494
 10
1456.777478049988
 20
-196.1216503172494
 10
1456.777478049988
 20
-187.3216503172491
 42
0.9999999999999998
 10
1456.777478049988
 20
-186.1216503172494
 10
1453.677478049988
 20
-186.121650317249
 42
0.9999999999999998
 10
1453.677478049988
 20
-187.3216503172491
 10
1453.677478049988
 20
-196.1216503172494
  0
ENDSEC
  0
SECTION
  2
OBJECTS
  0
DICTIONARY
  5
C
330
0
100
AcDbDictionary
281
     1
  3
ACAD_BACKGROUND
350
2CA
  3
ACAD_CIP_PREVIOUS_PRODUCT_INFO
350
216
  3
ACAD_COLOR
350
6B
  3
ACAD_DETAILVIEWSTYLE
350
21B
  3
ACAD_GROUP
350
D
  3
ACAD_LAYOUT
350
1A
  3
ACAD_MATERIAL
350
6A
  3
ACAD_MLEADERSTYLE
350
12D
  3
ACAD_MLINESTYLE
350
17
  3
ACAD_PLOTSETTINGS
350
19
  3
ACAD_PLOTSTYLENAME
350
E
  3
ACAD_SCALELIST
350
10C
  3
ACAD_SECTIONVIEWSTYLE
350
219
  3
ACAD_TABLESTYLE
350
7E
  3
ACAD_VISUALSTYLE
350
EF
  3
ACDB_RECOMPOSE_DATA
350
140E
  3
AcDbVariableDictionary
350
5E
  3
AcDsDecomposeData
350
1414
  0
DICTIONARY
  5
1FF
330
2
100
AcDbDictionary
280
     1
281
     1
  3
ACAD_LAYERSTATES
360
200
  0
DICTIONARY
  5
13C
330
10
100
AcDbDictionary
280
     1
281
     1
  0
DICTIONARY
  5
1CE
330
1F
100
AcDbDictionary
280
     1
281
     1
  3
ACAD_SORTENTS
360
27F
  0
DICTIONARY
  5
362
330
359
100
AcDbDictionary
280
     1
281
     1
  3
ACAD_SORTENTS
360
363
  0
DICTIONARY
  5
36F
330
366
100
AcDbDictionary
280
     1
281
     1
  3
ACAD_SORTENTS
360
370
  0
DICTIONARY
  5
392
330
389
100
AcDbDictionary
280
     1
281
     1
  3
ACAD_SORTENTS
360
393
  0
DICTIONARY
  5
3B5
330
3AC
100
AcDbDictionary
280
     1
281
     1
  3
ACAD_SORTENTS
360
3B6
  0
DICTIONARY
  5
3CE
330
3C4
100
AcDbDictionary
280
     1
281
     1
  3
ACAD_SORTENTS
360
3CF
  0
DICTIONARY
  5
3E0
330
3D7
100
AcDbDictionary
280
     1
281
     1
  3
ACAD_SORTENTS
360
3E1
  0
DICTIONARY
  5
3F4
330
3EB
100
AcDbDictionary
280
     1
281
     1
  3
ACAD_SORTENTS
360
3F5
  0
DICTIONARY
  5
70B
330
709
100
AcDbDictionary
280
     1
281
     1
  3
ACAD_SORTENTS
360
70C
  0
DICTIONARY
  5
711
330
70F
100
AcDbDictionary
280
     1
281
     1
  3
ACAD_SORTENTS
360
712
  0
DICTIONARY
  5
73E
330
73C
100
AcDbDictionary
280
     1
281
     1
  3
ACAD_SORTENTS
360
73F
  0
DICTIONARY
  5
748
330
742
100
AcDbDictionary
280
     1
281
     1
  3
ACAD_SORTENTS
360
749
  0
DICTIONARY
  5
75B
330
759
100
AcDbDictionary
280
     1
281
     1
  3
ACAD_SORTENTS
360
75C
  0
DICTIONARY
  5
779
330
777
100
AcDbDictionary
280
     1
281
     1
  3
ACAD_SORTENTS
360
77A
  0
DICTIONARY
  5
77F
330
77D
100
AcDbDictionary
280
     1
281
     1
  3
ACAD_SORTENTS
360
780
  0
DICTIONARY
  5
79D
330
79A
100
AcDbDictionary
280
     1
281
     1
  3
ACAD_SORTENTS
360
79E
  0
DICTIONARY
  5
7B9
330
7B5
100
AcDbDictionary
280
     1
281
     1
  3
ACAD_SORTENTS
360
7BA
  0
DICTIONARY
  5
7C1
330
7BD
100
AcDbDictionary
280
     1
281
     1
  3
ACAD_SORTENTS
360
7C2
  0
DICTIONARY
  5
7D7
330
7D1
100
AcDbDictionary
280
     1
281
     1
  3
ACAD_SORTENTS
360
7D8
  0
DICTIONARY
  5
995
330
98C
100
AcDbDictionary
280
     1
281
     1
  3
ACAD_SORTENTS
360
996
  0
DICTIONARY
  5
9BC
330
9B2
100
AcDbDictionary
280
     1
281
     1
  3
ACAD_SORTENTS
360
9BD
  0
DICTIONARY
  5
9FA
330
9F0
100
AcDbDictionary
280
     1
281
     1
  3
ACAD_SORTENTS
360
9FB
  0
DICTIONARY
  5
A83
330
A7A
100
AcDbDictionary
280
     1
281
     1
  3
ACAD_SORTENTS
360
A84
  0
DICTIONARY
  5
CCF
330
CC9
100
AcDbDictionary
280
     1
281
     1
  3
ACAD_SORTENTS
360
CD0
  0
DICTIONARY
  5
D6E
330
D68
100
AcDbDictionary
280
     1
281
     1
  3
ACAD_SORTENTS
360
D6F
  0
DICTIONARY
  5
D9A
330
D94
100
AcDbDictionary
280
     1
281
     1
  3
ACAD_SORTENTS
360
D9B
  0
DICTIONARY
  5
DAE
330
DA8
100
AcDbDictionary
280
     1
281
     1
  3
ACAD_SORTENTS
360
DAF
  0
DICTIONARY
  5
144C
330
957
100
AcDbDictionary
280
     1
281
     1
  3
ACAD_XREC_ROUNDTRIP
360
144D
  0
DICTIONARY
  5
144E
330
1388
100
AcDbDictionary
280
     1
281
     1
  3
ACAD_XREC_ROUNDTRIP
360
144F
  0
DICTIONARY
  5
2CA
102
{ACAD_REACTORS
330
C
102
}
330
C
100
AcDbDictionary
281
     1
  0
XRECORD
  5
216
102
{ACAD_REACTORS
330
C
102
}
330
C
100
AcDbXrecord
280
     1
300
ACDMAC
300
2015
300
ACD_F_S
  0
DICTIONARY
  5
6B
102
{ACAD_REACTORS
330
C
102
}
330
C
100
AcDbDictionary
281
     1
  0
DICTIONARY
  5
21B
102
{ACAD_REACTORS
330
C
102
}
330
C
100
AcDbDictionary
281
     1
  3
Metric50
350
21C
  0
DICTIONARY
  5
D
102
{ACAD_REACTORS
330
C
102
}
330
C
100
AcDbDictionary
281
     1
  0
DICTIONARY
  5
1A
102
{ACAD_REACTORS
330
C
102
}
330
C
100
AcDbDictionary
281
     1
  3
Layout1
350
D3
  3
Layout2
350
D7
  3
Model
350
22
  0
DICTIONARY
  5
6A
102
{ACAD_REACTORS
330
C
102
}
330
C
100
AcDbDictionary
281
     1
  3
ByBlock
350
ED
  3
ByLayer
350
EC
  3
Global
350
EE
  0
DICTIONARY
  5
12D
102
{ACAD_REACTORS
330
C
102
}
330
C
100
AcDbDictionary
281
     1
  3
Annotative
350
13B
  3
Standard
350
12E
  0
DICTIONARY
  5
17
102
{ACAD_REACTORS
330
C
102
}
330
C
100
AcDbDictionary
281
     1
  3
Standard
350
18
  0
DICTIONARY
  5
19
102
{ACAD_REACTORS
330
C
102
}
330
C
100
AcDbDictionary
281
     1
  0
ACDBDICTIONARYWDFLT
  5
E
102
{ACAD_REACTORS
330
C
102
}
330
C
100
AcDbDictionary
281
     1
  3
Normal
350
F
100
AcDbDictionaryWithDefault
340
F
  0
DICTIONARY
  5
10C
102
{ACAD_REACTORS
330
C
102
}
330
C
100
AcDbDictionary
281
     1
  3
A0
350
10D
  3
A1
350
1BE
  3
A2
350
1BF
  3
A3
350
1C0
  3
A4
350
1C1
  3
A5
350
1C2
  3
A6
350
1C3
  3
A7
350
1C4
  3
A8
350
1C5
  3
A9
350
1C6
  3
B0
350
1C7
  3
B1
350
1C8
  3
B2
350
1C9
  3
B3
350
1CA
  3
B4
350
1CB
  3
B5
350
1CC
  3
B6
350
1CD
  0
DICTIONARY
  5
219
102
{ACAD_REACTORS
330
C
102
}
330
C
100
AcDbDictionary
281
     1
  3
Metric50
350
21A
  0
DICTIONARY
  5
7E
102
{ACAD_REACTORS
330
C
102
}
330
C
100
AcDbDictionary
281
     1
  3
Standard
350
7F
  0
DICTIONARY
  5
EF
102
{ACAD_REACTORS
330
C
102
}
330
C
100
AcDbDictionary
281
     1
  3
2dWireframe
350
F5
  3
Basic
350
F4
  3
Brighten
350
FB
  3
ColorChange
350
FF
  3
Conceptual
350
F8
  3
Dim
350
FA
  3
EdgeColorOff
350
1E6
  3
Facepattern
350
FE
  3
Flat
350
F0
  3
FlatWithEdges
350
F1
  3
Gouraud
350
F2
  3
GouraudWithEdges
350
F3
  3
Hidden
350
F7
  3
JitterOff
350
1E4
  3
Linepattern
350
FD
  3
OverhangOff
350
1E5
  3
Realistic
350
F9
  3
Shaded
350
1F3
  3
Shaded with edges
350
1F2
  3
Shades of Gray
350
1EF
  3
Sketchy
350
1F0
  3
Thicken
350
FC
  3
Wireframe
350
F6
  3
X-Ray
350
1F1
  0
XRECORD
  5
140E
102
{ACAD_REACTORS
330
C
102
}
330
C
100
AcDbXrecord
280
     1
 90
        1
330
7F
  0
DICTIONARY
  5
5E
102
{ACAD_REACTORS
330
C
102
}
330
C
100
AcDbDictionary
281
     1
  3
CANNOSCALE
350
146
  3
CMLEADERSTYLE
350
145
  3
CTABLESTYLE
350
84
  3
CVIEWDETAILSTYLE
350
227
  3
CVIEWSECTIONSTYLE
350
228
  3
DIMASSOC
350
5F
  3
HIDETEXT
350
63
  3
LAYEREVAL
350
1AE
  3
LAYERNOTIFY
350
1AF
  3
LIGHTINGUNITS
350
10D8
  3
MSLTSCALE
350
10D7
  3
PSOLHEIGHT
350
13C1
  3
PSOLWIDTH
350
13C0
  3
XCLIPFRAME
350
13C2
  0
DICTIONARY
  5
1414
102
{ACAD_REACTORS
330
C
102
}
330
C
100
AcDbDictionary
281
     1
  3
AcDsRecords
350
1416
  3
AcDsSchemas
350
1415
1001
ACAD
1070
     2
  0
DICTIONARY
  5
200
102
{ACAD_REACTORS
330
1FF
102
}
330
1FF
100
AcDbDictionary
281
     1
  0
SORTENTSTABLE
  5
27F
102
{ACAD_REACTORS
330
1CE
102
}
330
1CE
100
AcDbSortentsTable
330
1F
331
D18
  5
1225
331
CD6
  5
11EE
331
CFA
  5
120C
331
1162
  5
136C
331
CDC
  5
11F3
331
11C2
  5
130C
331
D24
  5
122F
331
D06
  5
1216
331
CE2
  5
11F8
331
D2A
  5
1234
331
957
  5
C23
331
D0C
  5
121B
331
112A
  5
136D
331
CEE
  5
1202
331
CF4
  5
1207
331
D00
  5
1211
331
D30
  5
1239
331
1222
  5
12AC
331
D12
  5
1220
331
CE8
  5
11FD
  0
SORTENTSTABLE
  5
363
102
{ACAD_REACTORS
330
362
102
}
330
362
100
AcDbSortentsTable
330
359
  0
SORTENTSTABLE
  5
370
102
{ACAD_REACTORS
330
36F
102
}
330
36F
100
AcDbSortentsTable
330
366
  0
SORTENTSTABLE
  5
393
102
{ACAD_REACTORS
330
392
102
}
330
392
100
AcDbSortentsTable
330
389
  0
SORTENTSTABLE
  5
3B6
102
{ACAD_REACTORS
330
3B5
102
}
330
3B5
100
AcDbSortentsTable
330
3AC
  0
SORTENTSTABLE
  5
3CF
102
{ACAD_REACTORS
330
3CE
102
}
330
3CE
100
AcDbSortentsTable
330
3C4
  0
SORTENTSTABLE
  5
3E1
102
{ACAD_REACTORS
330
3E0
102
}
330
3E0
100
AcDbSortentsTable
330
3D7
  0
SORTENTSTABLE
  5
3F5
102
{ACAD_REACTORS
330
3F4
102
}
330
3F4
100
AcDbSortentsTable
330
3EB
  0
SORTENTSTABLE
  5
70C
102
{ACAD_REACTORS
330
70B
102
}
330
70B
100
AcDbSortentsTable
330
709
  0
SORTENTSTABLE
  5
712
102
{ACAD_REACTORS
330
711
102
}
330
711
100
AcDbSortentsTable
330
70F
  0
SORTENTSTABLE
  5
73F
102
{ACAD_REACTORS
330
73E
102
}
330
73E
100
AcDbSortentsTable
330
73C
  0
SORTENTSTABLE
  5
749
102
{ACAD_REACTORS
330
748
102
}
330
748
100
AcDbSortentsTable
330
742
  0
SORTENTSTABLE
  5
75C
102
{ACAD_REACTORS
330
75B
102
}
330
75B
100
AcDbSortentsTable
330
759
  0
SORTENTSTABLE
  5
77A
102
{ACAD_REACTORS
330
779
102
}
330
779
100
AcDbSortentsTable
330
777
  0
SORTENTSTABLE
  5
780
102
{ACAD_REACTORS
330
77F
102
}
330
77F
100
AcDbSortentsTable
330
77D
  0
SORTENTSTABLE
  5
79E
102
{ACAD_REACTORS
330
79D
102
}
330
79D
100
AcDbSortentsTable
330
79A
  0
SORTENTSTABLE
  5
7BA
102
{ACAD_REACTORS
330
7B9
102
}
330
7B9
100
AcDbSortentsTable
330
7B5
  0
SORTENTSTABLE
  5
7C2
102
{ACAD_REACTORS
330
7C1
102
}
330
7C1
100
AcDbSortentsTable
330
7BD
  0
SORTENTSTABLE
  5
7D8
102
{ACAD_REACTORS
330
7D7
102
}
330
7D7
100
AcDbSortentsTable
330
7D1
  0
SORTENTSTABLE
  5
996
102
{ACAD_REACTORS
330
995
102
}
330
995
100
AcDbSortentsTable
330
98C
  0
SORTENTSTABLE
  5
9BD
102
{ACAD_REACTORS
330
9BC
102
}
330
9BC
100
AcDbSortentsTable
330
9B2
  0
SORTENTSTABLE
  5
9FB
102
{ACAD_REACTORS
330
9FA
102
}
330
9FA
100
AcDbSortentsTable
330
9F0
  0
SORTENTSTABLE
  5
A84
102
{ACAD_REACTORS
330
A83
102
}
330
A83
100
AcDbSortentsTable
330
A7A
  0
SORTENTSTABLE
  5
CD0
102
{ACAD_REACTORS
330
CCF
102
}
330
CCF
100
AcDbSortentsTable
330
CC9
  0
SORTENTSTABLE
  5
D6F
102
{ACAD_REACTORS
330
D6E
102
}
330
D6E
100
AcDbSortentsTable
330
D68
  0
SORTENTSTABLE
  5
D9B
102
{ACAD_REACTORS
330
D9A
102
}
330
D9A
100
AcDbSortentsTable
330
D94
  0
SORTENTSTABLE
  5
DAF
102
{ACAD_REACTORS
330
DAE
102
}
330
DAE
100
AcDbSortentsTable
330
DA8
  0
XRECORD
  5
144D
102
{ACAD_REACTORS
330
144C
102
}
330
144C
100
AcDbXrecord
280
     1
102
VERTEXIDENTIFIER
310
1B0000000000000000000000000000000000000000000000000000000000000000000000000000000000000000000000030000000000000000000000000000000000000000000000000000000000000000000000000000000000000000000000000000000000000000000000
  0
XRECORD
  5
144F
102
{ACAD_REACTORS
330
144E
102
}
330
144E
100
AcDbXrecord
280
     1
102
VERTEXIDENTIFIER
310
1B0000000000000000000000000000000000000000000000000000000000000000000000000000000000000000000000030000000000000000000000000000000000000000000000000000000000000000000000000000000000000000000000000000000000000000000000
  0
ACDBDETAILVIEWSTYLE
  5
21C
102
{ACAD_XDICTIONARY
360
144A
102
}
102
{ACAD_REACTORS
330
21B
102
}
330
21B
100
AcDbModelDocViewStyle
 70
     0
  3
Metric50
290
     0
100
AcDbDetailViewStyle
 70
     0
 71
     0
 90
        3
 71
     1
340
11
 62
   256
 40
5.0
340
0
 62
   256
 40
5.0
300

 40
0.0
280
     1
 71
     2
340
16
 90
       25
 62
   256
 71
     3
340
11
 62
   256
 40
5.0
 90
        0
 40
15.0
 90
        1
300
%<\AcVar ViewDetailId>% (%<\AcVar ViewScale \f "%sn">%)
 71
     4
340
16
 90
       25
 62
   256
340
16
 90
       25
 62
   256
280
     0
  0
LAYOUT
  5
D3
102
{ACAD_REACTORS
330
1A
102
}
330
1A
100
AcDbPlotSettings
  1

  2
C:\Documents and Settings\basas\Application Data\Autodesk\AutoCAD 2005\R16.1\enu\plotters\Default Windows System Printer.pc3
  4

  6

 40
0.0
 41
0.0
 42
0.0
 43
0.0
 44
0.0
 45
0.0
 46
0.0
 47
0.0
 48
0.0
 49
0.0
140
0.0
141
0.0
142
1.0
143
1.0
 70
   688
 72
     0
 73
     0
 74
     5
  7

 75
    16
147
1.0
 76
     0
 77
     2
 78
   300
148
0.0
149
0.0
100
AcDbLayout
  1
Layout1
 70
     1
 71
     1
 10
0.0
 20
0.0
 11
12.0
 21
9.0
 12
0.0
 22
0.0
 32
0.0
 14
0.0
 24
0.0
 34
0.0
 15
0.0
 25
0.0
 35
0.0
146
0.0
 13
0.0
 23
0.0
 33
0.0
 16
1.0
 26
0.0
 36
0.0
 17
0.0
 27
1.0
 37
0.0
 76
     0
330
D2
  0
LAYOUT
  5
D7
102
{ACAD_REACTORS
330
1A
102
}
330
1A
100
AcDbPlotSettings
  1

  2
C:\Documents and Settings\basas\Application Data\Autodesk\AutoCAD 2005\R16.1\enu\plotters\Default Windows System Printer.pc3
  4

  6

 40
0.0
 41
0.0
 42
0.0
 43
0.0
 44
0.0
 45
0.0
 46
0.0
 47
0.0
 48
0.0
 49
0.0
140
0.0
141
0.0
142
1.0
143
1.0
 70
   688
 72
     0
 73
     0
 74
     5
  7

 75
    16
147
1.0
 76
     0
 77
     2
 78
   300
148
0.0
149
0.0
100
AcDbLayout
  1
Layout2
 70
     1
 71
     2
 10
0.0
 20
0.0
 11
12.0
 21
9.0
 12
0.0
 22
0.0
 32
0.0
 14
0.0
 24
0.0
 34
0.0
 15
0.0
 25
0.0
 35
0.0
146
0.0
 13
0.0
 23
0.0
 33
0.0
 16
1.0
 26
0.0
 36
0.0
 17
0.0
 27
1.0
 37
0.0
 76
     0
330
D6
  0
LAYOUT
  5
22
102
{ACAD_XDICTIONARY
360
205
102
}
102
{ACAD_REACTORS
330
1A
102
}
330
1A
100
AcDbPlotSettings
  1

  2
none_device
  4
ISO_A4_(210.00_x_297.00_MM)
  6

 40
7.5
 41
20.0
 42
7.5
 43
20.0
 44
210.0
 45
297.0
 46
11.54999923706054
 47
-13.65000009536743
 48
0.0
 49
0.0
140
0.0
141
0.0
142
1.0
143
8.704084754739808
 70
 11952
 72
     1
 73
     0
 74
     0
  7

 75
     0
147
0.1148885871608098
 76
     0
 77
     2
 78
   300
148
0.0
149
0.0
100
AcDbLayout
  1
Model
 70
     1
 71
     0
 10
0.0
 20
0.0
 11
12.0
 21
9.0
 12
0.0
 22
0.0
 32
0.0
 14
0.0
 24
0.0
 34
0.0
 15
0.0
 25
0.0
 35
0.0
146
0.0
 13
0.0
 23
0.0
 33
0.0
 16
1.0
 26
0.0
 36
0.0
 17
0.0
 27
1.0
 37
0.0
 76
     0
330
1F
331
EA
1001
ACAD_PSEXT
1000
None
1000
None
1000
Not applicable
1000
The layout will not be plotted unless a new plotter configuration name is selected.
1070
     0
  0
MATERIAL
  5
ED
102
{ACAD_XDICTIONARY
360
1F9
102
}
102
{ACAD_REACTORS
330
6A
102
}
330
6A
100
AcDbMaterial
  1
ByBlock
  0
MATERIAL
  5
EC
102
{ACAD_XDICTIONARY
360
1F7
102
}
102
{ACAD_REACTORS
330
6A
102
}
330
6A
100
AcDbMaterial
  1
ByLayer
  0
MATERIAL
  5
EE
102
{ACAD_XDICTIONARY
360
173
102
}
102
{ACAD_REACTORS
330
6A
102
}
330
6A
100
AcDbMaterial
  1
Global
 43
0.0007999999797903
 43
0.0
 43
0.0
 43
0.0
 43
0.0
 43
0.0007999999797903
 43
0.0
 43
0.0
 43
0.0
 43
0.0
 43
1.0
 43
0.0
 43
0.0
 43
0.0
 43
0.0
 43
1.0
 49
0.0007999999797903
 49
0.0
 49
0.0
 49
0.0
 49
0.0
 49
0.0007999999797903
 49
0.0
 49
0.0
 49
0.0
 49
0.0
 49
1.0
 49
0.0
 49
0.0
 49
0.0
 49
0.0
 49
1.0
142
0.0007999999797903
142
0.0
142
0.0
142
0.0
142
0.0
142
0.0007999999797903
142
0.0
142
0.0
142
0.0
142
0.0
142
1.0
142
0.0
142
0.0
142
0.0
142
0.0
142
1.0
144
0.0007999999797903
144
0.0
144
0.0
144
0.0
144
0.0
144
0.0007999999797903
144
0.0
144
0.0
144
0.0
144
0.0
144
1.0
144
0.0
144
0.0
144
0.0
144
0.0
144
1.0
1001
ACAD
1070
    -1
1070
     3
1070
     0
1000

1071
        0
1070
     0
  0
MLEADERSTYLE
  5
13B
102
{ACAD_REACTORS
330
12D
102
}
330
12D
100
AcDbMLeaderStyle
170
     2
171
     1
172
     0
 90
        2
 40
0.0
 41
0.0
173
     1
 91
-1056964608
340
14
 92
       -2
290
     1
 42
2.0
291
     1
 43
8.0
  3
Standard
 44
4.0
300

342
11
174
     1
178
     1
175
     1
176
     0
 93
-1056964608
 45
4.0
292
     0
297
     0
 46
4.0
 94
-1056964608
 47
1.0
 49
1.0
140
1.0
293
     1
141
0.0
294
     1
177
     0
142
1.0
295
     0
296
     1
143
3.75
1001
ACAD_MLEADERVER
1070
     2
  0
MLEADERSTYLE
  5
12E
102
{ACAD_REACTORS
330
12D
102
}
330
12D
100
AcDbMLeaderStyle
170
     2
171
     1
172
     0
 90
        2
 40
0.0
 41
0.0
173
     1
 91
-1056964608
340
14
 92
       -2
290
     1
 42
2.0
291
     1
 43
8.0
  3
Standard
 44
4.0
300

342
11
174
     1
178
     1
175
     1
176
     0
 93
-1056964608
 45
4.0
292
     0
297
     0
 46
4.0
 94
-1056964608
 47
1.0
 49
1.0
140
1.0
293
     1
141
0.0
294
     1
177
     0
142
1.0
295
     0
296
     0
143
3.75
1001
ACAD_MLEADERVER
1070
     2
  0
MLINESTYLE
  5
18
102
{ACAD_REACTORS
330
17
102
}
330
17
100
AcDbMlineStyle
  2
STANDARD
 70
     0
  3

 62
   256
 51
90.0
 52
90.0
 71
     2
 49
0.5
 62
   256
  6
BYLAYER
 49
-0.5
 62
   256
  6
BYLAYER
  0
ACDBPLACEHOLDER
  5
F
102
{ACAD_REACTORS
330
E
102
}
330
E
  0
SCALE
  5
10D
102
{ACAD_REACTORS
330
10C
102
}
330
10C
100
AcDbScale
 70
     0
300
1:1
140
1.0
141
1.0
290
     1
  0
SCALE
  5
1BE
102
{ACAD_REACTORS
330
10C
102
}
330
10C
100
AcDbScale
 70
     0
300
1:2
140
1.0
141
2.0
290
     0
  0
SCALE
  5
1BF
102
{ACAD_REACTORS
330
10C
102
}
330
10C
100
AcDbScale
 70
     0
300
1:4
140
1.0
141
4.0
290
     0
  0
SCALE
  5
1C0
102
{ACAD_REACTORS
330
10C
102
}
330
10C
100
AcDbScale
 70
     0
300
1:5
140
1.0
141
5.0
290
     0
  0
SCALE
  5
1C1
102
{ACAD_REACTORS
330
10C
102
}
330
10C
100
AcDbScale
 70
     0
300
1:8
140
1.0
141
8.0
290
     0
  0
SCALE
  5
1C2
102
{ACAD_REACTORS
330
10C
102
}
330
10C
100
AcDbScale
 70
     0
300
1:10
140
1.0
141
10.0
290
     0
  0
SCALE
  5
1C3
102
{ACAD_REACTORS
330
10C
102
}
330
10C
100
AcDbScale
 70
     0
300
1:16
140
1.0
141
16.0
290
     0
  0
SCALE
  5
1C4
102
{ACAD_REACTORS
330
10C
102
}
330
10C
100
AcDbScale
 70
     0
300
1:20
140
1.0
141
20.0
290
     0
  0
SCALE
  5
1C5
102
{ACAD_REACTORS
330
10C
102
}
330
10C
100
AcDbScale
 70
     0
300
1:30
140
1.0
141
30.0
290
     0
  0
SCALE
  5
1C6
102
{ACAD_REACTORS
330
10C
102
}
330
10C
100
AcDbScale
 70
     0
300
1:40
140
1.0
141
40.0
290
     0
  0
SCALE
  5
1C7
102
{ACAD_REACTORS
330
10C
102
}
330
10C
100
AcDbScale
 70
     0
300
1:50
140
1.0
141
50.0
290
     0
  0
SCALE
  5
1C8
102
{ACAD_REACTORS
330
10C
102
}
330
10C
100
AcDbScale
 70
     0
300
1:100
140
1.0
141
100.0
290
     0
  0
SCALE
  5
1C9
102
{ACAD_REACTORS
330
10C
102
}
330
10C
100
AcDbScale
 70
     0
300
2:1
140
2.0
141
1.0
290
     0
  0
SCALE
  5
1CA
102
{ACAD_REACTORS
330
10C
102
}
330
10C
100
AcDbScale
 70
     0
300
4:1
140
4.0
141
1.0
290
     0
  0
SCALE
  5
1CB
102
{ACAD_REACTORS
330
10C
102
}
330
10C
100
AcDbScale
 70
     0
300
8:1
140
8.0
141
1.0
290
     0
  0
SCALE
  5
1CC
102
{ACAD_REACTORS
330
10C
102
}
330
10C
100
AcDbScale
 70
     0
300
10:1
140
10.0
141
1.0
290
     0
  0
SCALE
  5
1CD
102
{ACAD_REACTORS
330
10C
102
}
330
10C
100
AcDbScale
 70
     0
300
100:1
140
100.0
141
1.0
290
     0
  0
ACDBSECTIONVIEWSTYLE
  5
21A
102
{ACAD_XDICTIONARY
360
1448
102
}
102
{ACAD_REACTORS
330
219
102
}
330
219
100
AcDbModelDocViewStyle
 70
     0
  3
Metric50
290
     0
100
AcDbSectionViewStyle
 70
     0
 71
     0
 90
      102
 71
     1
340
11
 62
   256
 40
5.0
340
0
340
0
 62
   256
 40
5.0
300
I, O, Q, S, X, Z
 40
10.0
 90
        0
 40
2.5
 90
        0
 71
     2
340
16
 90
       25
 62
   256
340
16
 90
       50
 62
   256
 40
5.0
 40
2.5
 40
5.0
 71
     3
340
11
 62
   256
 40
5.0
 90
        0
 40
15.0
 90
        1
300
%<\AcVar ViewSectionStartId>%-%<\AcVar ViewSectionEndId>% (%<\AcVar ViewScale \f "%sn">%)
 71
     4
 62
   256
 62
   257
300
ANSI31
 40
1.0
 90
        0
290
     0
290
     0
 90
        6
 40
0.0
 40
1.570796326794896
 40
0.2617993877991494
 40
1.308996938995747
 40
-0.2617993877991494
 40
1.832595714594044
  0
TABLESTYLE
  5
7F
102
{ACAD_XDICTIONARY
360
162
102
}
102
{ACAD_REACTORS
330
7E
102
}
330
7E
100
AcDbTableStyle
  3
Standard
 70
     0
 71
     0
 40
1.5
 41
1.5
280
     0
281
     0
  7
Standard
140
4.5
170
     2
 62
     0
 63
     7
283
     0
274
    -2
284
     1
 64
     0
275
    -2
285
     1
 65
     0
276
    -2
286
     1
 66
     0
277
    -2
287
     1
 67
     0
278
    -2
288
     1
 68
     0
279
    -2
289
     1
 69
     0
  7
Standard
140
6.0
170
     5
 62
     0
 63
     7
283
     0
274
    -2
284
     1
 64
     0
275
    -2
285
     1
 65
     0
276
    -2
286
     1
 66
     0
277
    -2
287
     1
 67
     0
278
    -2
288
     1
 68
     0
279
    -2
289
     1
 69
     0
  7
Standard
140
4.5
170
     5
 62
     0
 63
     7
283
     0
274
    -2
284
     1
 64
     0
275
    -2
285
     1
 65
     0
276
    -2
286
     1
 66
     0
277
    -2
287
     1
 67
     0
278
    -2
288
     1
 68
     0
279
    -2
289
     1
 69
     0
  0
VISUALSTYLE
  5
F5
102
{ACAD_XDICTIONARY
360
1422
102
}
102
{ACAD_REACTORS
330
EF
102
}
330
EF
100
AcDbVisualStyle
  2

 70
     4
 71
     0
 72
     2
 73
     1
 90
        0
 40
-0.6
 41
-30.0
 62
     5
 63
     7
421
 16777215
 74
     1
 91
        4
 64
     7
 65
   257
 75
     1
175
     1
 42
1.0
 92
        0
 66
   257
 43
1.0
 76
     1
 77
     6
 78
     2
 67
     7
 79
     5
170
     0
171
     0
290
     0
174
     0
 93
        1
 44
0.0
173
     0
291
     0
 45
0.0
1001
ACAD
1000
AcDbSavedByObjectVersion
1070
     0
  0
VISUALSTYLE
  5
F4
102
{ACAD_XDICTIONARY
360
1420
102
}
102
{ACAD_REACTORS
330
EF
102
}
330
EF
100
AcDbVisualStyle
  2

 70
     7
 71
     1
 72
     0
 73
     1
 90
        0
 40
-0.6
 41
-30.0
 62
     5
 63
     7
421
 16777215
 74
     0
 91
        4
 64
     7
 65
   257
 75
     1
175
     1
 42
1.0
 92
        8
 66
     7
 43
1.0
 76
     1
 77
     6
 78
     2
 67
     7
 79
     5
170
     0
171
     0
290
     0
174
     0
 93
        1
 44
0.0
173
     0
291
     1
 45
0.0
1001
ACAD
1000
AcDbSavedByObjectVersion
1070
     0
  0
VISUALSTYLE
  5
FB
102
{ACAD_XDICTIONARY
360
142E
102
}
102
{ACAD_REACTORS
330
EF
102
}
330
EF
100
AcDbVisualStyle
  2

 70
    12
 71
     2
 72
     2
 73
     1
 90
        0
 40
-0.6
 41
-30.0
 62
     5
 63
     7
421
 16777215
 74
     1
 91
        4
 64
     7
 65
   257
 75
     1
175
     1
 42
1.0
 92
        8
 66
     7
 43
1.0
 76
     1
 77
     6
 78
     2
 67
     7
 79
     5
170
     0
171
     0
290
     0
174
     0
 93
        1
 44
50.0
173
     0
291
     1
 45
0.0
1001
ACAD
1000
AcDbSavedByObjectVersion
1070
     0
  0
VISUALSTYLE
  5
FF
102
{ACAD_XDICTIONARY
360
1436
102
}
102
{ACAD_REACTORS
330
EF
102
}
330
EF
100
AcDbVisualStyle
  2

 70
    16
 71
     2
 72
     2
 73
     3
 90
        0
 40
-0.6
 41
-30.0
 62
     5
 63
     8
421
  8421504
 74
     1
 91
        4
 64
     7
 65
   257
 75
     1
175
     1
 42
1.0
 92
        8
 66
     8
424
  8421504
 43
1.0
 76
     1
 77
     6
 78
     2
 67
     7
 79
     5
170
     0
171
     0
290
     0
174
     0
 93
        1
 44
0.0
173
     0
291
     1
 45
0.0
1001
ACAD
1000
AcDbSavedByObjectVersion
1070
     0
  0
VISUALSTYLE
  5
F8
102
{ACAD_XDICTIONARY
360
1428
102
}
102
{ACAD_REACTORS
330
EF
102
}
330
EF
100
AcDbVisualStyle
  2

 70
     9
 71
     3
 72
     2
 73
     1
 90
        0
 40
-0.6
 41
-30.0
 62
     5
 63
     7
421
 16777215
 74
     2
 91
        2
 64
     7
 65
   257
 75
     1
175
     1
 42
40.0
 92
        8
 66
     7
 43
1.0
 76
     1
 77
     6
 78
     2
 67
     7
 79
     3
170
     0
171
     0
290
     0
174
     0
 93
        1
 44
0.0
173
     0
291
     0
 45
0.0
1001
ACAD
1000
AcDbSavedByObjectVersion
1070
     0
  0
VISUALSTYLE
  5
FA
102
{ACAD_XDICTIONARY
360
142C
102
}
102
{ACAD_REACTORS
330
EF
102
}
330
EF
100
AcDbVisualStyle
  2

 70
    11
 71
     2
 72
     2
 73
     1
 90
        0
 40
-0.6
 41
-30.0
 62
     5
 63
     7
421
 16777215
 74
     1
 91
        4
 64
     7
 65
   257
 75
     1
175
     1
 42
1.0
 92
        8
 66
     7
 43
1.0
 76
     1
 77
     6
 78
     2
 67
     7
 79
     5
170
     0
171
     0
290
     0
174
     0
 93
        1
 44
-50.0
173
     0
291
     1
 45
0.0
1001
ACAD
1000
AcDbSavedByObjectVersion
1070
     0
  0
VISUALSTYLE
  5
1E6
102
{ACAD_XDICTIONARY
360
143C
102
}
102
{ACAD_REACTORS
330
EF
102
}
330
EF
100
AcDbVisualStyle
  2

 70
    22
 71
     2
 72
     2
 73
     0
 90
        0
 40
-0.6
 41
-30.0
 62
     5
 63
     7
421
 16777215
 74
     1
 91
        4
 64
     7
 65
   257
 75
     1
175
     1
 42
1.0
 92
        8
 66
     7
 43
1.0
 76
     1
 77
     6
 78
     2
 67
     7
 79
     5
170
     0
171
     0
290
     0
174
     0
 93
        1
 44
0.0
173
     0
291
     1
 45
0.0
1001
ACAD
1000
AcDbSavedByObjectVersion
1070
     0
  0
VISUALSTYLE
  5
FE
102
{ACAD_XDICTIONARY
360
1434
102
}
102
{ACAD_REACTORS
330
EF
102
}
330
EF
100
AcDbVisualStyle
  2

 70
    15
 71
     2
 72
     2
 73
     1
 90
        0
 40
-0.6
 41
-30.0
 62
     5
 63
     7
421
 16777215
 74
     1
 91
        4
 64
     7
 65
   257
 75
     1
175
     1
 42
1.0
 92
        8
 66
     7
 43
1.0
 76
     1
 77
     6
 78
     2
 67
     7
 79
     5
170
     0
171
     0
290
     0
174
     0
 93
        1
 44
0.0
173
     0
291
     1
 45
0.0
1001
ACAD
1000
AcDbSavedByObjectVersion
1070
     0
  0
VISUALSTYLE
  5
F0
102
{ACAD_XDICTIONARY
360
1418
102
}
102
{ACAD_REACTORS
330
EF
102
}
330
EF
100
AcDbVisualStyle
  2

 70
     0
 71
     2
 72
     1
 73
     1
 90
        2
 40
-0.6
 41
30.0
 62
     5
 63
     7
421
 16777215
 74
     0
 91
        0
 64
     7
 65
   257
 75
     1
175
     1
 42
1.0
 92
        8
 66
     7
 43
1.0
 76
     1
 77
     6
 78
     2
 67
     7
 79
     5
170
     0
171
     0
290
     0
174
     0
 93
       13
 44
0.0
173
     0
291
     1
 45
0.0
1001
ACAD
1000
AcDbSavedByObjectVersion
1070
     0
  0
VISUALSTYLE
  5
F1
102
{ACAD_XDICTIONARY
360
141A
102
}
102
{ACAD_REACTORS
330
EF
102
}
330
EF
100
AcDbVisualStyle
  2

 70
     1
 71
     2
 72
     1
 73
     1
 90
        2
 40
-0.6
 41
30.0
 62
     5
 63
     7
421
 16777215
 74
     1
 91
        0
 64
     7
 65
   257
 75
     1
175
     1
 42
1.0
 92
        0
 66
   257
 43
1.0
 76
     1
 77
     6
 78
     2
 67
     7
 79
     5
170
     0
171
     0
290
     0
174
     0
 93
       13
 44
0.0
173
     0
291
     1
 45
0.0
1001
ACAD
1000
AcDbSavedByObjectVersion
1070
     0
  0
VISUALSTYLE
  5
F2
102
{ACAD_XDICTIONARY
360
141C
102
}
102
{ACAD_REACTORS
330
EF
102
}
330
EF
100
AcDbVisualStyle
  2

 70
     2
 71
     2
 72
     2
 73
     1
 90
        2
 40
-0.6
 41
30.0
 62
     5
 63
     7
421
 16777215
 74
     0
 91
        0
 64
     7
 65
   257
 75
     1
175
     1
 42
1.0
 92
        0
 66
     7
 43
1.0
 76
     1
 77
     6
 78
     2
 67
     7
 79
     5
170
     0
171
     0
290
     0
174
     0
 93
       13
 44
0.0
173
     0
291
     1
 45
0.0
1001
ACAD
1000
AcDbSavedByObjectVersion
1070
     0
  0
VISUALSTYLE
  5
F3
102
{ACAD_XDICTIONARY
360
141E
102
}
102
{ACAD_REACTORS
330
EF
102
}
330
EF
100
AcDbVisualStyle
  2

 70
     3
 71
     2
 72
     2
 73
     1
 90
        2
 40
-0.6
 41
30.0
 62
     5
 63
     7
421
 16777215
 74
     1
 91
        0
 64
     7
 65
   257
 75
     1
175
     1
 42
1.0
 92
        0
 66
   257
 43
1.0
 76
     1
 77
     6
 78
     2
 67
     7
 79
     5
170
     0
171
     0
290
     0
174
     0
 93
       13
 44
0.0
173
     0
291
     1
 45
0.0
1001
ACAD
1000
AcDbSavedByObjectVersion
1070
     0
  0
VISUALSTYLE
  5
F7
102
{ACAD_XDICTIONARY
360
1426
102
}
102
{ACAD_REACTORS
330
EF
102
}
330
EF
100
AcDbVisualStyle
  2

 70
     6
 71
     1
 72
     2
 73
     2
 90
        0
 40
-0.6
 41
-30.0
 62
     5
 63
     7
421
 16777215
 74
     2
 91
        2
 64
     7
 65
   257
 75
     2
175
     1
 42
40.0
 92
        0
 66
   257
 43
1.0
 76
     1
 77
     6
 78
     2
 67
     7
 79
     3
170
     0
171
     0
290
     0
174
     0
 93
        1
 44
0.0
173
     0
291
     0
 45
0.0
1001
ACAD
1000
AcDbSavedByObjectVersion
1070
     0
  0
VISUALSTYLE
  5
1E4
102
{ACAD_XDICTIONARY
360
1438
102
}
102
{ACAD_REACTORS
330
EF
102
}
330
EF
100
AcDbVisualStyle
  2

 70
    20
 71
     2
 72
     2
 73
     0
 90
        0
 40
-0.6
 41
-30.0
 62
     5
 63
     7
421
 16777215
 74
     1
 91
        4
 64
     7
 65
   257
 75
     1
175
     1
 42
1.0
 92
       10
 66
     7
 43
1.0
 76
     1
 77
     6
 78
     2
 67
     7
 79
     5
170
     0
171
     0
290
     0
174
     0
 93
        1
 44
0.0
173
     0
291
     1
 45
0.0
1001
ACAD
1000
AcDbSavedByObjectVersion
1070
     0
  0
VISUALSTYLE
  5
FD
102
{ACAD_XDICTIONARY
360
1432
102
}
102
{ACAD_REACTORS
330
EF
102
}
330
EF
100
AcDbVisualStyle
  2

 70
    14
 71
     2
 72
     2
 73
     1
 90
        0
 40
-0.6
 41
-30.0
 62
     5
 63
     7
421
 16777215
 74
     1
 91
        4
 64
     7
 65
   257
 75
     7
175
     7
 42
1.0
 92
        8
 66
     7
 43
1.0
 76
     1
 77
     6
 78
     2
 67
     7
 79
     5
170
     0
171
     0
290
     0
174
     0
 93
        1
 44
0.0
173
     0
291
     1
 45
0.0
1001
ACAD
1000
AcDbSavedByObjectVersion
1070
     0
  0
VISUALSTYLE
  5
1E5
102
{ACAD_XDICTIONARY
360
143A
102
}
102
{ACAD_REACTORS
330
EF
102
}
330
EF
100
AcDbVisualStyle
  2

 70
    21
 71
     2
 72
     2
 73
     0
 90
        0
 40
-0.6
 41
-30.0
 62
     5
 63
     7
421
 16777215
 74
     1
 91
        4
 64
     7
 65
   257
 75
     1
175
     1
 42
1.0
 92
        9
 66
     7
 43
1.0
 76
     1
 77
     6
 78
     2
 67
     7
 79
     5
170
     0
171
     0
290
     0
174
     0
 93
        1
 44
0.0
173
     0
291
     1
 45
0.0
1001
ACAD
1000
AcDbSavedByObjectVersion
1070
     0
  0
VISUALSTYLE
  5
F9
102
{ACAD_XDICTIONARY
360
142A
102
}
102
{ACAD_REACTORS
330
EF
102
}
330
EF
100
AcDbVisualStyle
  2

 70
     8
 71
     2
 72
     3
 73
     0
 90
        2
 40
-0.6
 41
30.0
 62
     5
 63
     7
421
 16777215
 74
     0
 91
        0
 64
     7
 65
   257
 75
     1
175
     1
 42
1.0
 92
        8
 66
   257
 43
1.0
 76
     1
 77
     6
 78
     2
 67
     7
 79
     3
170
     0
171
     0
290
     0
174
     0
 93
       13
 44
0.0
173
     0
291
     0
 45
0.0
1001
ACAD
1000
AcDbSavedByObjectVersion
1070
     0
  0
VISUALSTYLE
  5
1F3
102
{ACAD_XDICTIONARY
360
1446
102
}
102
{ACAD_REACTORS
330
EF
102
}
330
EF
100
AcDbVisualStyle
  2

 70
    27
 71
     2
 72
     2
 73
     1
 90
        2
 40
-0.6
 41
30.0
 62
     5
 63
     7
421
 16777215
 74
     0
 91
        4
 64
     7
 65
   257
 75
     1
175
     1
 42
1.0
 92
        8
 66
   257
 43
1.0
 76
     1
 77
     6
 78
     2
 67
     8
425
  7895160
 79
     3
170
     0
171
     0
290
     0
174
     0
 93
        5
 44
0.0
173
     0
291
     0
 45
0.0
1001
ACAD
1000
AcDbSavedByObjectVersion
1070
     0
  0
VISUALSTYLE
  5
1F2
102
{ACAD_XDICTIONARY
360
1444
102
}
102
{ACAD_REACTORS
330
EF
102
}
330
EF
100
AcDbVisualStyle
  2

 70
    26
 71
     2
 72
     2
 73
     1
 90
        2
 40
-0.6
 41
30.0
 62
     5
 63
     7
421
 16777215
 74
     1
 91
       10
 64
     7
 65
   257
 75
     2
175
     1
 42
1.0
 92
        8
 66
   257
 43
1.0
 76
     1
 77
     6
 78
     2
 67
     7
 79
     3
170
     0
171
     0
290
     0
174
     0
 93
        5
 44
0.0
173
     0
291
     0
 45
0.0
1001
ACAD
1000
AcDbSavedByObjectVersion
1070
     0
  0
VISUALSTYLE
  5
1EF
102
{ACAD_XDICTIONARY
360
143E
102
}
102
{ACAD_REACTORS
330
EF
102
}
330
EF
100
AcDbVisualStyle
  2

 70
    23
 71
     2
 72
     2
 73
     3
 90
        0
 40
-0.6
 41
-30.0
 62
     5
 63
     7
421
 16777215
 74
     2
 91
        2
 64
     7
 65
     7
 75
     1
175
     1
 42
40.0
 92
        8
 66
     7
 43
1.0
 76
     1
 77
     6
 78
     2
 67
     7
 79
     3
170
     0
171
     0
290
     0
174
     0
 93
        1
 44
0.0
173
     0
291
     0
 45
0.0
1001
ACAD
1000
AcDbSavedByObjectVersion
1070
     0
  0
VISUALSTYLE
  5
1F0
102
{ACAD_XDICTIONARY
360
1440
102
}
102
{ACAD_REACTORS
330
EF
102
}
330
EF
100
AcDbVisualStyle
  2

 70
    24
 71
     1
 72
     2
 73
     2
 90
        0
 40
-0.6
 41
-30.0
 62
     5
 63
     7
421
 16777215
 74
     2
 91
        2
 64
     7
 65
     7
 75
     1
175
     1
 42
40.0
 92
       11
 66
     7
 43
1.0
 76
     1
 77
     6
 78
     2
 67
     7
 79
     6
170
     0
171
     0
290
     0
174
     0
 93
        1
 44
0.0
173
     0
291
     0
 45
0.0
1001
ACAD
1000
AcDbSavedByObjectVersion
1070
     0
  0
VISUALSTYLE
  5
FC
102
{ACAD_XDICTIONARY
360
1430
102
}
102
{ACAD_REACTORS
330
EF
102
}
330
EF
100
AcDbVisualStyle
  2

 70
    13
 71
     2
 72
     2
 73
     1
 90
        0
 40
-0.6
 41
-30.0
 62
     5
 63
     7
421
 16777215
 74
     1
 91
        4
 64
     7
 65
   257
 75
     1
175
     1
 42
1.0
 92
       12
 66
     7
 43
1.0
 76
     1
 77
     6
 78
     2
 67
     7
 79
     5
170
     0
171
     0
290
     0
174
     0
 93
        1
 44
0.0
173
     0
291
     1
 45
0.0
1001
ACAD
1000
AcDbSavedByObjectVersion
1070
     0
  0
VISUALSTYLE
  5
F6
102
{ACAD_XDICTIONARY
360
1424
102
}
102
{ACAD_REACTORS
330
EF
102
}
330
EF
100
AcDbVisualStyle
  2

 70
     5
 71
     0
 72
     2
 73
     0
 90
        0
 40
-0.6
 41
-30.0
 62
     5
 63
     7
421
 16777215
 74
     1
 91
        4
 64
     7
 65
   257
 75
     1
175
     1
 42
1.0
 92
        0
 66
   257
 43
1.0
 76
     1
 77
     6
 78
     2
 67
     7
 79
     3
170
     0
171
     0
290
     0
174
     0
 93
        1
 44
0.0
173
     0
291
     0
 45
0.0
1001
ACAD
1000
AcDbSavedByObjectVersion
1070
     0
  0
VISUALSTYLE
  5
1F1
102
{ACAD_XDICTIONARY
360
1442
102
}
102
{ACAD_REACTORS
330
EF
102
}
330
EF
100
AcDbVisualStyle
  2

 70
    25
 71
     2
 72
     2
 73
     1
 90
        1
 40
0.5
 41
-30.0
 62
     5
 63
     7
421
 16777215
 74
     1
 91
        0
 64
     7
 65
   257
 75
     1
175
     1
 42
1.0
 92
        8
 66
     7
 43
1.0
 76
     1
 77
     6
 78
     2
 67
     7
 79
     3
170
     0
171
     0
290
     0
174
     0
 93
       13
 44
0.0
173
     0
291
     0
 45
0.0
1001
ACAD
1000
AcDbSavedByObjectVersion
1070
     0
  0
DICTIONARYVAR
  5
146
102
{ACAD_REACTORS
330
5E
102
}
330
5E
100
DictionaryVariables
280
     0
  1
1:1
  0
DICTIONARYVAR
  5
145
102
{ACAD_REACTORS
330
5E
102
}
330
5E
100
DictionaryVariables
280
     0
  1
STANDARD
  0
DICTIONARYVAR
  5
84
102
{ACAD_REACTORS
330
5E
102
}
330
5E
100
DictionaryVariables
280
     0
  1
STANDARD
  0
DICTIONARYVAR
  5
227
102
{ACAD_REACTORS
330
5E
102
}
330
5E
100
DictionaryVariables
280
     0
  1
Metric50
  0
DICTIONARYVAR
  5
228
102
{ACAD_REACTORS
330
5E
102
}
330
5E
100
DictionaryVariables
280
     0
  1
Metric50
  0
DICTIONARYVAR
  5
5F
102
{ACAD_REACTORS
330
5E
102
}
330
5E
100
DictionaryVariables
280
     0
  1
2
  0
DICTIONARYVAR
  5
63
102
{ACAD_REACTORS
330
5E
102
}
330
5E
100
DictionaryVariables
280
     0
  1
1
  0
DICTIONARYVAR
  5
1AE
102
{ACAD_REACTORS
330
5E
102
}
330
5E
100
DictionaryVariables
280
     0
  1
0
  0
DICTIONARYVAR
  5
1AF
102
{ACAD_REACTORS
330
5E
102
}
330
5E
100
DictionaryVariables
280
     0
  1
0
  0
DICTIONARYVAR
  5
10D8
102
{ACAD_REACTORS
330
5E
102
}
330
5E
100
DictionaryVariables
280
     0
  1
2
  0
DICTIONARYVAR
  5
10D7
102
{ACAD_REACTORS
330
5E
102
}
330
5E
100
DictionaryVariables
280
     0
  1
1
  0
DICTIONARYVAR
  5
13C1
102
{ACAD_REACTORS
330
5E
102
}
330
5E
100
DictionaryVariables
280
     0
  1
80.000000
  0
DICTIONARYVAR
  5
13C0
102
{ACAD_REACTORS
330
5E
102
}
330
5E
100
DictionaryVariables
280
     0
  1
5.000000
  0
DICTIONARYVAR
  5
13C2
102
{ACAD_REACTORS
330
5E
102
}
330
5E
100
DictionaryVariables
280
     0
  1
2
  0
DICTIONARY
  5
1416
102
{ACAD_REACTORS
330
1414
102
}
330
1414
100
AcDbDictionary
281
     1
  0
DICTIONARY
  5
1415
102
{ACAD_REACTORS
330
1414
102
}
330
1414
100
AcDbDictionary
281
     1
  3
140271905321088
350
1410
  3
140271905321104
350
1411
  3
140271905321120
350
1412
  3
140271905321136
350
1413
  3
140271905324912
350
140F
  0
DICTIONARY
  5
144A
330
21C
100
AcDbDictionary
280
     1
281
     1
  3
ACAD_XREC_ROUNDTRIP
360
144B
  0
DICTIONARY
  5
205
330
22
100
AcDbDictionary
280
     1
281
     1
  0
DICTIONARY
  5
1F9
330
ED
100
AcDbDictionary
280
     1
281
     1
  3
ACAD_XREC_ROUNDTRIP
360
10E8
  3
FBXASSET
360
1FA
  0
DICTIONARY
  5
1F7
330
EC
100
AcDbDictionary
280
     1
281
     1
  3
ACAD_XREC_ROUNDTRIP
360
10E7
  3
FBXASSET
360
1F8
  0
DICTIONARY
  5
173
330
EE
100
AcDbDictionary
280
     1
281
     1
  3
ACAD_XREC_ROUNDTRIP
360
10E9
  3
BUMPTILE
360
175
  3
DIFFUSETILE
360
174
  3
FBXASSET
360
1FB
  3
OPACITYTILE
360
176
  3
REFLECTIONTILE
360
177
  0
DICTIONARY
  5
1448
330
21A
100
AcDbDictionary
280
     1
281
     1
  3
ACAD_XREC_ROUNDTRIP
360
1449
  0
DICTIONARY
  5
162
330
7F
100
AcDbDictionary
280
     1
281
     1
  3
ACAD_ROUNDTRIP_2008_TABLESTYLE_CELLSTYLEMAP
360
140D
  3
ACAD_XREC_ROUNDTRIP
360
1417
  0
DICTIONARY
  5
1422
330
F5
100
AcDbDictionary
280
     1
281
     1
  3
ACAD_XREC_ROUNDTRIP
360
1423
  0
DICTIONARY
  5
1420
330
F4
100
AcDbDictionary
280
     1
281
     1
  3
ACAD_XREC_ROUNDTRIP
360
1421
  0
DICTIONARY
  5
142E
330
FB
100
AcDbDictionary
280
     1
281
     1
  3
ACAD_XREC_ROUNDTRIP
360
142F
  0
DICTIONARY
  5
1436
330
FF
100
AcDbDictionary
280
     1
281
     1
  3
ACAD_XREC_ROUNDTRIP
360
1437
  0
DICTIONARY
  5
1428
330
F8
100
AcDbDictionary
280
     1
281
     1
  3
ACAD_XREC_ROUNDTRIP
360
1429
  0
DICTIONARY
  5
142C
330
FA
100
AcDbDictionary
280
     1
281
     1
  3
ACAD_XREC_ROUNDTRIP
360
142D
  0
DICTIONARY
  5
143C
330
1E6
100
AcDbDictionary
280
     1
281
     1
  3
ACAD_XREC_ROUNDTRIP
360
143D
  0
DICTIONARY
  5
1434
330
FE
100
AcDbDictionary
280
     1
281
     1
  3
ACAD_XREC_ROUNDTRIP
360
1435
  0
DICTIONARY
  5
1418
330
F0
100
AcDbDictionary
280
     1
281
     1
  3
ACAD_XREC_ROUNDTRIP
360
1419
  0
DICTIONARY
  5
141A
330
F1
100
AcDbDictionary
280
     1
281
     1
  3
ACAD_XREC_ROUNDTRIP
360
141B
  0
DICTIONARY
  5
141C
330
F2
100
AcDbDictionary
280
     1
281
     1
  3
ACAD_XREC_ROUNDTRIP
360
141D
  0
DICTIONARY
  5
141E
330
F3
100
AcDbDictionary
280
     1
281
     1
  3
ACAD_XREC_ROUNDTRIP
360
141F
  0
DICTIONARY
  5
1426
330
F7
100
AcDbDictionary
280
     1
281
     1
  3
ACAD_XREC_ROUNDTRIP
360
1427
  0
DICTIONARY
  5
1438
330
1E4
100
AcDbDictionary
280
     1
281
     1
  3
ACAD_XREC_ROUNDTRIP
360
1439
  0
DICTIONARY
  5
1432
330
FD
100
AcDbDictionary
280
     1
281
     1
  3
ACAD_XREC_ROUNDTRIP
360
1433
  0
DICTIONARY
  5
143A
330
1E5
100
AcDbDictionary
280
     1
281
     1
  3
ACAD_XREC_ROUNDTRIP
360
143B
  0
DICTIONARY
  5
142A
330
F9
100
AcDbDictionary
280
     1
281
     1
  3
ACAD_XREC_ROUNDTRIP
360
142B
  0
DICTIONARY
  5
1446
330
1F3
100
AcDbDictionary
280
     1
281
     1
  3
ACAD_XREC_ROUNDTRIP
360
1447
  0
DICTIONARY
  5
1444
330
1F2
100
AcDbDictionary
280
     1
281
     1
  3
ACAD_XREC_ROUNDTRIP
360
1445
  0
DICTIONARY
  5
143E
330
1EF
100
AcDbDictionary
280
     1
281
     1
  3
ACAD_XREC_ROUNDTRIP
360
143F
  0
DICTIONARY
  5
1440
330
1F0
100
AcDbDictionary
280
     1
281
     1
  3
ACAD_XREC_ROUNDTRIP
360
1441
  0
DICTIONARY
  5
1430
330
FC
100
AcDbDictionary
280
     1
281
     1
  3
ACAD_XREC_ROUNDTRIP
360
1431
  0
DICTIONARY
  5
1424
330
F6
100
AcDbDictionary
280
     1
281
     1
  3
ACAD_XREC_ROUNDTRIP
360
1425
  0
DICTIONARY
  5
1442
330
1F1
100
AcDbDictionary
280
     1
281
     1
  3
ACAD_XREC_ROUNDTRIP
360
1443
  0
XRECORD
  5
1410
102
{ACAD_REACTORS
330
1415
102
}
330
1415
100
AcDbXrecord
280
     1
  1
AcDbDs::TreatedAsObjectDataSchema
  2
AcDbDs::TreatedAsObjectData
280
     1
 91
        0
  0
XRECORD
  5
1411
102
{ACAD_REACTORS
330
1415
102
}
330
1415
100
AcDbXrecord
280
     1
  1
AcDbDs::LegacySchema
  2
AcDbDs::Legacy
280
     1
 91
        0
  0
XRECORD
  5
1412
102
{ACAD_REACTORS
330
1415
102
}
330
1415
100
AcDbXrecord
280
     1
  1
AcDbDs::IndexedPropertySchema
  2
AcDs:Indexable
280
     1
 91
        0
  0
XRECORD
  5
1413
102
{ACAD_REACTORS
330
1415
102
}
330
1415
100
AcDbXrecord
280
     1
  1
AcDbDs::HandleAttributeSchema
  2
AcDbDs::HandleAttribute
280
     7
 91
        1
284
     1
  0
XRECORD
  5
140F
102
{ACAD_REACTORS
330
1415
102
}
330
1415
100
AcDbXrecord
280
     1
  1
AcDb_Thumbnail_Schema
102
{ATTRRECORD
341
1410
  2
AcDbDs::TreatedAsObjectData
280
     1
291
     1
102
ATTRRECORD}
102
{ATTRRECORD
341
1411
  2
AcDbDs::Legacy
280
     1
291
     1
102
ATTRRECORD}
  2
AcDbDs::ID
280
    10
 91
        8
102
{ATTRRECORD
341
1412
  2
AcDs:Indexable
280
     1
291
     1
102
ATTRRECORD}
102
{ATTRRECORD
341
1413
  2
AcDbDs::HandleAttribute
280
     7
282
     1
102
ATTRRECORD}
  2
Thumbnail_Data
280
    15
 91
        0
  0
XRECORD
  5
144B
102
{ACAD_REACTORS
330
144A
102
}
330
144A
100
AcDbXrecord
280
     1
102
DISPLAYNAME
  1
Metric50
102
FLAGS
 90
        0
  0
XRECORD
  5
10E8
102
{ACAD_REACTORS
330
1F9
102
}
330
1F9
100
AcDbXrecord
280
     1
102
MATERIAL
148
0.0
149
0.0
149
0.0
 93
        0
 94
      127
282
     0
 72
     1
 77
     1
171
     1
175
     1
179
     1
273
     0
  0
XRECORD
  5
1FA
102
{ACAD_REACTORS
330
1F9
102
}
330
1F9
100
AcDbXrecord
280
     1
 70
     1
 90
429727718
  1
D62C5603-E3A1-4AEA-B7FB-FE5D8D0755AF
310
504B03040A0000080000CC70623B3DEE336E79000000790000001B0000006175746F6465736B2D64657369676E2D7061636B6167652E786D6C3C3F786D6C2076657273696F6E3D22312E302220656E636F64696E673D227574662D3822203F3E3C666F726D6174733E3C666F726D61743E687474703A2F2F736368656D612E
310
6175746F6465736B2E636F6D2F64657369676E2D7061636B6167652F323030393C2F666F726D61743E3C2F666F726D6174733E504B0304140006080800CC70623BD486FD9CA0000000F4000000130000005B436F6E74656E745F54797065735D2E786D6C7D8EC10E82300C865F65E91D8A1E8C310C0EEA1BF002731658846E
310
D98AC1B77784ABF1D8FE5FBFBF75BBCE937A534CCEB38643598122B6FEE978D0B0485F9C41B54DDD7D022595594E1A469170414C76A4D9A4D207E29CF43ECE46F218070CC6BECC4078ACAA135ACF422C856C0E68EA1BF5669944DDD7BCDE7B1F8E415D77AECB980613C2E4AC91FC167A2B244592486606FC29C8FD7F045B9A
310
EF7053A7E60B504B0304140006080800CC70623B853B8169EB0000007C01000008000000636F72652E786D6C8D90416EC3201045AF62CDB6C206821CC7C244919D9CA01740401C94182C03558F5F9C3852BBEB6A467FFE9B197D7EFC9E1EC5975982F5AE035262288C535E5B377690E21535501C055FBC8FBF6C503839990E
310
5619041F179FE64D52DE45E362569DD7661365082642A11EB9E920A89B99642953CC8E702F67A9EE7234257977194EC9EAE275C4EABCCF5EAD5940D4AC6F0E35A568B8F43562CD7046CD199FD07E60174276A7BE677B5EADB0E0D14EEFFB6A31321A0D82627C4084204C3F096B71DD52F6819B16635EADF63F509AF53FA164
310
5DDCD1EDDD17164090FCC8732078B56691CB33A85CD7DCC40F504B0304140006080800CC70623B55019EA25F0000007C00000007000000636E782E786D6C4DCB3B0E80201045D1AD90E915ED2CF8AC45050C11660C8261F98AB1B07AC9C97D42D718D865D3E909258CFD00CCE24AC6E326A164D74DC0B4128928FF32603847
310
2BA13128B1252AC747C6BAB984FC68F0B87FE8960A5C09FE86CFB69FBA01504B0304140006080800CC70623BDBABAAF470010000D40300000C0000006662782F636F72652E786D6CC553D16E823014FD95A6AF4B694182CC941A83FA05FB810A9511A125A5257EFE2E82712ECEB8A7F100CD39F7F69E734AF9FADC366850B6
310
AF8DCE7018308C942E4C59EB2AC3DE1D498AD15A706B8CFB56869196ADCAF00863C12B6B7C374385D14E6907A836A59A41D9F7CA615434B0C8705F7CAA5606D23BA8E84F41278B93AC54100640439DE0BDB320004D43C63716C7C399D30917DCFBBA9CD9BA8469F5B156168B24CED3F7248AC8769F27244EB73B92EED8862C
310
B7F13E0C179B3C8F979C8ECD82BBBABDAA2BAC924E9558448CBD9330242CFA08E3154B5651FCC6D215639C8EE5774DBE2B5F6CF2B5768B68963BB5F5588420E442FC700B1139D4CB01F450C1E918227C2E09DF070D8140C84E1E9AAB8F1340832A9CB13130A5F1376A908D57309505ECF2A0DF179C4E9D30F5B239B87E3823
310
7A79C6F31DE1A8A5AEC08474B03C7837EAE4938639B44E5932B833D2C6B6B279CDC613877FA26EE21F4A2A4C63EC7F29A2F301D1F9F7A0E37D145F504B0304140006080800CC70623B9C113CC27E0000009D0000000B0000006662782F636E782E786D6C4DCCDF0A83201C86E15B91DFB94BFB330DD428C8FB886521330DA7
310
6397BF1A1DECE883878F57749FCDA1B7892F1BBC047A23808C7F84D9FA55424E0BE6803A256208E9EF06C84F9B91703228B1C690F78B66B34CD9A5439DF5CF0BFBF65E35BCA1B8D6A5C6F540381E886698B5741C695F9503EBA150A2F8958E3DC3EA0B504B0304140006080800CC70623B7DF2F77C2A010000120200003100
310
00006662782F41393633353835312D344632462D344230382D423046372D3739314545314133324237412F636F72652E786D6C8D51DB8EC22014FC15C2939B0D2DB4B45643319AE817EC0F6041255A68B86CFCFC856D4D76DF7CE190393373060EDB3DC707F856CE6B6B7A480A0C81328395DA5C7B18C3057510EC3873D686
310
3F34088C18550F330C39BB3A1BA7051AAC09CA84841A2BD5020AEF55806078A44B0FFD7053A328440C89E1EFC52486BBB8AA8214A99D789CF9E05200300FC927E4FB4D5B375D43103D5527440FB843077C5AA3F5861C8F645F5787F59E95B390B318B55CE45AA638FAA2957BD7248B390B7A7CC51F9C124149C82B8C378810
310
84AB2F42B7B8DD56F413775B8C5999E9FF4471926F8AA236A1AE96B8B3CC434E5839373893369E1FAF30EA395917409EB7F26AF8801C171837A4A6AC9C89E9F9C9B1A58BA30FD6A5EF5DDDCF894B9AD9B6A59C957943A9FCAE2FD5BC4DFE03504B0304140006080800CC70623BAD7543B64E01000033030000300000006662
310
782F41393633353835312D344632462D344230382D423046372D3739314545314133324237412F636E782E786D6CD593CD6EC32010845F0571AD6CE3D48AD20813A9873E410FBD12D82434182C7EAAE6EDBB2424CD25871E7B41D6EC30B3FA84F9E67BB2E40B4234DE8DB46F1925E094D7C6ED479AD3AE5951B2113C789FEE
310
6C943839C1488B4C05DF079FE72A69D8C96C13AAD6B8631503449F83828872B949AC57D26200B826A308D316B4064D6E46FCDA41C05550DC9E483A00797BFD207EFB092A45DE9514C1BBD22178396BD39D891265658C238DEA00936C654E5E433CB65A26D9F6EDB5EBC14EBF49A45CB856E66048291F6939A9A81BB5C89177
310
38143CA680F4AA299D66A042CEB3354A2684DC9D8D178FE0D9B8B41CAAD720F880EE7EF93C0C18769E099ECC04D5A102C8049A8A05632F4DDF376CF1DE0F6BB65C2F8627B65A33C6BB62177CEBBDAD973006829F89F22E814B54F4BC2BE347F8AA8F681390B50FA73F804400B5F542E796F19FF974E7F78DB802FE05E20750
310
4B0304140006080800CC70623BE75B7789680500003C100000340000006662782F41393633353835312D344632462D344230382D423046372D3739314545314133324237412F6F626A656374732E786D6CAD575B8F9B3818FD2B887D06C22499CB8AA1CA655245D5B455A356FB305264C061D8018C6C3393D95FBFC7600890
310
A4CD5EF210B0B1BFEBF98E3F7B1FF6596ABC522E1296DF9BAE3D320D9A872C4AF2F8DE2CE5CEBA358D0FBEC719939D65A691938CDE9B6ADAF4BD98B3B2D05311DD91329583D9D5FC0F438434A7A611A644887B5384CF34233629258BA878B12322891DEFF6B66BD70BFB62634E8AE781D082709A4B588AF91C528CDA28B73F
310
1C998EEF39EABBEFA97FBD6A7C7E9553F9D3D79FE442923C3C523610337627CB87ABE99D359D4CC6D6E4FACAB5E6ABF9D2726FC6A3C5F56271377BB88362213924694B38DD99FE47C48627A1E7D49F5A8BB5E1A74C0A599ED3B0F21F1E56366B89112D681E218F0915D0D6F17AD41FBA2A369DCF6335D62ABBD39779D5DDD1
310
11D4D8DE3CBB96B2E04FB8202E41051754A1AA8E8F76B4C6DFE810B580B1547F4B84911149794252234D024EF8BBE963A95AE27B3D310A9D5C215C7960FAEE415ED75694C6AFB17BCACA5D99A60A9AA65F217B0BFC53292ACB92BF283FAD0D3621576592CB5BED907C2FA8E9DF794E35E97BEA31BED21FEB401ABB94C44839
310
DCACBF0E1C5DA8DA5B2F4DFFD32AD86F543D9E565E7056502E157C00AD2671CD534549AB752FCA9CDA00677A313F04E51B22FF19E57B300579E3C97EB29F682D92935CEC18CF901B7B54FD8C51F362B56FC72FE0B3C1EAE335EDCCBF5AEC39ADB17DC238973F804BA5E6F6BFE7AF1FB32E523BE9F3BD571418E3631DCA4D48
310
5250CF639223210A9446CA30052EDF057BD35F8329C1ECD84552BF0DC8D18BE7BCE23BFE6BD960AB4A7DE79923A103BEBD80F911CBAA2C60DB19B01CF164A5583B772EE6D3FFA56666CBCDA74DC97724A48F9A58967497E489C4D979006FD7A05E227A1EBDD0F737C623387A9C844D3709995625106D157315F8B8392CD4E0
310
A0B9A720C4BE9829CEF37EA1E13111214D53925356365ADA634861B52519DD27A00AEB808EAF0628E6F435519D446F45CF2C9CF5214F0A15B2F6D06B79DA3EE3CBF7F56780D2F4E7EF73A0F5E5B02A38D07DC852C6B7C1FBB6664213E0C39E3EBA7FF4E1AD23EA2829407C85E586727488B751B2DB9502BC7B228A3FD68B6E
310
A65A22397E690AA8D158D7E404EC8CDA235CC3B7D1898680131CEC2CDF2638C65196279577750F15884AEE19F94199155B92B13297978469D4F8D358DF0AEF7631E28DC8F0D9F437D5D39A83B2231A1D52D543813A824EF8D44BCFF2FA6A31BD1E8DAD87F1CCB526B3879935BF59CDADD5C37479BB1CDD4CA7B3556B516589
310
EF352754B706114D9C885EC9131DE6EFEB43D99AFE2391C2F958179413D7CFEF6B1B6DB1E7600F00DE6E5C67454A339A4BA2E0FBA85ED26F045D454F463DBFCE484C2F90F2E5E3666003662ED8F755951A7D1BECD5B30B550B2785C8E7320B7292A4838DDA71BBC863ED7613CAF659337A3354231D4FF4A182A54904C2898C
310
98B28C4AD0CE056CCF332A80986E571EE9DBC305BB5FEB7E509220A58D25CF042D712A806AC0AD0C657FDEF80D2D9CEAA2EE4D1C76F60BFE74219A06527D6F82DF6412526107381E55E353090704D085B52408A8913C4ED159D79BDA71BB4BC506F4831350EB6F975CD22D69BF7AC49B91A2C0A9DDA3D5CA36AD20FC478E37
310
E61844E2352865EBCB61A275A65283CAAA9DD27703B4102F5AF51EF5F573B75CBB5AD38BC845F7A49F82A0966A49C2E3EA5EA0ECD326CD965F1DB402C6FA8B51A4658C5C5E2EC9E214602E55810345408596591009A82E7E7FFACA19EEA299B14A0081A705CB3296EBC14CDF658DCD336EA6D1136881AAEB87B81AB9EE53D5
310
F5EB8BC8362082DA24122F98680A4E7930C01A0079749CEA14382A0783E5EBA5A10F8C098456A03D6A4AEB6BB881E2513747552A5DB22C7EDAF83BD5528081A365F7FF06504B0304140006080000CC70623B000000000000000000000000350000006662782F41393633353835312D344632462D344230382D423046372D37
310
39314545314133324237412F76657274696365732E62696E504B0304140006080800CC70623BF270F1330600000004000000360000006662782F41393633353835312D344632462D344230382D423046372D3739314545314133324237412F747269616E676C65732E62696E636660600000504B0304140006080000CC7062
310
3B000000000000000000000000370000006662782F41393633353835312D344632462D344230382D423046372D3739314545314133324237412F617474726962757465732E62696E504B0304140006080800CC70623B08DA0BD19000000041010000360000006662782F41393633353835312D344632462D344230382D4230
310
46372D3739314545314133324237412F6469726563746F72792E786D6C858F410AC3201045AF22B36F53E9A60B35CBEEBAE80D244E44489C6234F4F835464A48035D0DF398FF9F8AF63D0E6CC63039F212F8F9020C7D47C6792B21C5FE7403D62A1188E2E60C98D7234A5830286103A55745067B9D86B8A3CF9C7F90C11DE6
310
07FB144396D7B6A82D282E9A152AD114D5EF2CB866EEE831B8EEA07A7BB5A8D7D61A2BAAEB7FD5F70921FF497D00504B0304140006080800CC70623BEDD1DC58FD000000A00100003B0000006662782F41393633353835312D344632462D344230382D423046372D3739314545314133324237412F7265736F75726365732F
310
636F72652E786D6C8D504B6E833010BD0A9A6D65B00922041947112427E8052C33A156828DFCA97AFC9A40A576D7CDCCE87D344F8F9FBFE667F689CE6B6B3A6039850C8DB2A336530731DC4903D95970676DF82583CCC8193B5861107C72362E3BA4AC096842428D1D7107A5F7182053CF7474E0D507CE32973124857FE48B
310
540F3961CEF244279DE03EB81420DB9EAC1384436FA353E879B1B182C7A8C75DA3C7F453DF353A1075D537A7BA6464B8F535A99AE14A9A2BBD90E350DD183B5CFABE3AF262350B1EF4FC9351399401471025A527C218A1E53BAB5A5AB765F5469B96525EACF23FA6B88CFF34456DC2A1DCE36E360F82A5202F42F062ED2BAD
310
579969AFDD8A6F504B010214000A0000080000CC70623B3DEE336E79000000790000001B00000000000000000000000000000000006175746F6465736B2D64657369676E2D7061636B6167652E786D6C504B01021400140006080800CC70623BD486FD9CA0000000F40000001300000000000000000000000000B20000005B
310
436F6E74656E745F54797065735D2E786D6C504B01021400140006080800CC70623B853B8169EB0000007C010000080000000000000000000000000083010000636F72652E786D6C504B01021400140006080800CC70623B55019EA25F0000007C000000070000000000000000000000000094020000636E782E786D6C504B
310
01021400140006080800CC70623BDBABAAF470010000D40300000C00000000000000000000000000180300006662782F636F72652E786D6C504B01021400140006080800CC70623B9C113CC27E0000009D0000000B00000000000000000000000000B20400006662782F636E782E786D6C504B01021400140006080800CC70
310
623B7DF2F77C2A010000120200003100000000000000000000000000590500006662782F41393633353835312D344632462D344230382D423046372D3739314545314133324237412F636F72652E786D6C504B01021400140006080800CC70623BAD7543B64E010000330300003000000000000000000000000000D2060000
310
6662782F41393633353835312D344632462D344230382D423046372D3739314545314133324237412F636E782E786D6C504B01021400140006080800CC70623BE75B7789680500003C10000034000000000000000000000000006E0800006662782F41393633353835312D344632462D344230382D423046372D3739314545
310
314133324237412F6F626A656374732E786D6C504B01021400140006080000CC70623B0000000000000000000000003500000000000000000000000000280E00006662782F41393633353835312D344632462D344230382D423046372D3739314545314133324237412F76657274696365732E62696E504B01021400140006
310
080800CC70623BF270F133060000000400000036000000000000000000000000007B0E00006662782F41393633353835312D344632462D344230382D423046372D3739314545314133324237412F747269616E676C65732E62696E504B01021400140006080000CC70623B0000000000000000000000003700000000000000
310
000000000000D50E00006662782F41393633353835312D344632462D344230382D423046372D3739314545314133324237412F617474726962757465732E62696E504B01021400140006080800CC70623B08DA0BD1900000004101000036000000000000000000000000002A0F00006662782F41393633353835312D344632
310
462D344230382D423046372D3739314545314133324237412F6469726563746F72792E786D6C504B01021400140006080800CC70623BEDD1DC58FD000000A00100003B000000000000000000000000000E1000006662782F41393633353835312D344632462D344230382D423046372D3739314545314133324237412F7265
310
736F75726365732F636F72652E786D6C504B0506000000000E000E0080040000641100000000
  0
XRECORD
  5
10E7
102
{ACAD_REACTORS
330
1F7
102
}
330
1F7
100
AcDbXrecord
280
     1
102
MATERIAL
148
0.0
149
0.0
149
0.0
 93
        0
 94
      127
282
     0
 72
     1
 77
     1
171
     1
175
     1
179
     1
273
     0
  0
XRECORD
  5
1F8
102
{ACAD_REACTORS
330
1F7
102
}
330
1F7
100
AcDbXrecord
280
     1
 70
     1
 90
429727718
  1
30362254-06B7-45E0-A893-8CFA70E3D6BC
310
504B03040A0000080000CC70623B3DEE336E79000000790000001B0000006175746F6465736B2D64657369676E2D7061636B6167652E786D6C3C3F786D6C2076657273696F6E3D22312E302220656E636F64696E673D227574662D3822203F3E3C666F726D6174733E3C666F726D61743E687474703A2F2F736368656D612E
310
6175746F6465736B2E636F6D2F64657369676E2D7061636B6167652F323030393C2F666F726D61743E3C2F666F726D6174733E504B0304140006080800CC70623BD486FD9CA0000000F4000000130000005B436F6E74656E745F54797065735D2E786D6C7D8EC10E82300C865F65E91D8A1E8C310C0EEA1BF002731658846E
310
D98AC1B77784ABF1D8FE5FBFBF75BBCE937A534CCEB38643598122B6FEE978D0B0485F9C41B54DDD7D022595594E1A469170414C76A4D9A4D207E29CF43ECE46F218070CC6BECC4078ACAA135ACF422C856C0E68EA1BF5669944DDD7BCDE7B1F8E415D77AECB980613C2E4AC91FC167A2B244592486606FC29C8FD7F045B9A
310
EF7053A7E60B504B0304140006080800CC70623B1EC5D7A3EB0000007C01000008000000636F72652E786D6C8D90416EC3201045AF82665B6103C6756C6122AB4D4ED00B204C5C94182C03558F5F9C3852BBEB6A467FFE9B197D71FC9E6FE8CBACC17AD7032D0820E3B41FAD9B7A48F1820F808E52ACDEC75F36404ECDA687
310
4D0629A6D5A76597B477D1B89855E747B38B2A041301E95B6E7A08FAD3CCAA50296647B8168BD2573599823EBB0CA76447F43862C7BCCF5EAC59410E4DDD9C7973C2755553CCCFA4C603E3040F1565ED3B1FDE4E432BCA0D9622DAF9795FAF464533826484B498524CD807E51D79ED187F21878E10516EF63F505AC67F42C9
310
BA58B1FDDD071640D2FCC87D2045B96591CB3DA85CB7DCE40F504B0304140006080800CC70623B55019EA25F0000007C00000007000000636E782E786D6C4DCB3B0E80201045D1AD90E915ED2CF8AC45050C11660C8261F98AB1B07AC9C97D42D718D865D3E909258CFD00CCE24AC6E326A164D74DC0B4128928FF32603847
310
2BA13128B1252AC747C6BAB984FC68F0B87FE8960A5C09FE86CFB69FBA01504B0304140006080800CC70623B8C9102E971010000D40300000C0000006662782F636F72652E786D6CC5535B6E833010BC8AE5DF0A6C08340F1947A84D4ED00B38C6A128602363A31CBFCB234A53A551FA553EC09AD9F5CE8C31DB9E9B1AF5CA
310
7695D1198E428A91D2D214952E33ECDD315861B4E5CC1AE3BE9561A445A3323CC098B3D21ADFCE9034DA29ED00D5A6503328BA4E398C640D8B0C77F253352214DE4145770A5B214FA2546114020D759C75CE8200340D19DE981F0F6746269C33EFAB6266AB02A655C74A59CCF365BADC27CB5D902ED22848F6340DF238A141
310
BE88E2F57B92BFEDF23523433367AE6A2EEAA455C2A902F398D2751045018D3FA264435F3771F242571B4A1919CA6F9A7C5B3CD9E42BED16F12C776AEB308F40C848FC700B1139D4891EF410CEC810227CC6846F8386402064270EF5C5C709A05E49676C024C61FC95EA45ED154CA5211D1FF4FB8291A913A68E9B83EBBB33
310
E2A7673CDE118E5AE8124C0807CB8377834E366998436B950D7A7746DAD846D4CFD978E0F04FD455FC5D49D2D4C6FE9722321F10997F0F32DC47FE05504B0304140006080800CC70623BFFEA85907E0000009D0000000B0000006662782F636E782E786D6C4DCCD10A83201886E15B91FFDC95D95A811AB6F23E625948A6C3
310
E9D8E5AF46073BFAE0E1E365ED67B3E8ADC3CB78C7815C7240DA3DFC64DCC221C519D7805AC182F7F1EF06C88D9BE6703008B6049F9E274D7A1E938DBB5AE3D6131B2589BA0D3D965551E0B2EA732C9B9A624AAEB41E3A557677029960D9AFB4EF11165F504B0304140006080800CC70623B4FEEA4082C0100001202000031
310
0000006662782F39464131463745442D413632322D343644302D413938332D3331353338454246344243312F636F72652E786D6C8D515B6EC32010BC0AE2AB55850DD871ED0813254D72825EC00192A2C460F1A872FC42ED48ED5F7E00CDCECCCEB26C731F6FE05B39AFADE921293004CA082BB5B9F43086336A21D870E6AC
310
0D7F68109861543DCC30E4ECE26C9C164858139409093556AA051CBC570102714B8F1E7AF1A5C6A11862480C7F2DA6415C878B2A4891CA89C7990F2E050073937C42DE1DB7E4F87ED8A36D4329AA9B3D46DBAEAD504556557BD81DEBDD0761E52CE42C462D17B996298E3E6BE59E35C962CE821E1FF18553435012728A7187
310
0841987E927A8D9B35ADDF70BBC6989599FE4F1427F9A4286A132ABAC49D651EF234CD5CE04CDA78BA3DC2A8FB645D00B9DF8B57E215725C60BCA2A463E54C4CE327C7A65E1C7DB02E7DEFCBF594B864C5CA6CDBD49C957943E9FA5D5FBAF336F90F504B0304140006080800CC70623BAD7543B64E01000033030000300000
310
006662782F39464131463745442D413632322D343644302D413938332D3331353338454246344243312F636E782E786D6CD593CD6EC32010845F0571AD6CE3D48AD20813A9873E410FBD12D82434182C7EAAE6EDBB2424CD25871E7B41D6EC30B3FA84F9E67BB2E40B4234DE8DB46F1925E094D7C6ED479AD3AE5951B2113C
310
789FEE6C943839C1488B4C05DF079FE72A69D8C96C13AAD6B8631503449F83828872B949AC57D26200B826A308D316B4064D6E46FCDA41C05550DC9E483A00797BFD207EFB092A45DE9514C1BBD22178396BD39D891265658C238DEA00936C654E5E433CB65A26D9F6EDB5EBC14EBF49A45CB856E66048291F6939A9A81BB5
310
C8917738143CA680F4AA299D66A042CEB3354A2684DC9D8D178FE0D9B8B41CAAD720F880EE7EF93C0C18769E099ECC04D5A102C8049A8A05632F4DDF376CF1DE0F6BB65C2F8627B65A33C6BB62177CEBBDAD973006829F89F22E814B54F4BC2BE347F8AA8F681390B50FA73F804400B5F542E796F19FF974E7F78DB802FE05
310
E207504B0304140006080800CC70623B16AB87BA640500003C100000340000006662782F39464131463745442D413632322D343644302D413938332D3331353338454246344243312F6F626A656374732E786D6CAD575B6FA33818FD2B887DE6924B3BED8A326A92B68A663B534DD4D13E548A0C38942D60649B369D5FBFC7
310
600890A493BDE42160637FD7F31D7FF63E6FB3D478A55C242CBF3247B66B1A340F5994E4F19559CA8D75611A9F7D8F33263BCB4C232719BD32D5B4E97B316765A1A722BA21652A07B3B7B33F0D11D29C9A46981221AE4C113ED38CD8A4942CA2E2C58E882476BCD9DA23BB5ED8171B73523C0F841684D35CC252CCE79062D4
310
468DFA43D7747CCF51DF7D4FFDEB5593E3AB9CCA9FBEFE241792E4E19EB28198C968BAB8199F5D5A67D3E9C49A9E8F47D6EC76B6B0469F26EEFC7C3EBFBCBEB98462213924694B38DD98FE1D62C393D073EA4FADC5DAF04326852CCF6958F90F0F2B9BB5C48816348F90C7840A68EB78EDF68723159BCEE7891A6B95DDE9D3
310
BCEAEEE8086A6C6F9E5D4B59F0175C10A7A0820BAA5055C7473B5AE3CFDD452D602CD5DF12616444529E90D448938013FE6EFA58AA96F85E4F8C42275708571E98FE6827AF6B2B4AE3D7D83D64E5A64C53054DD3AF90BD06FEA9149565C94FCA0F6B834DC85599E4F2423B24DF0B6AFA979E534DFA9E7A4CC6FA631D486393
310
921829879BF5D781A373557BCB85E97FB90DB62B558F8795179C15944B051F40AB495CF35451D26A4727654E6D8033BD98EF82F21D91FF8AF2DD9982BCF1643BDD4EB516C9492E368C67C88DED563FC36D5EACF66DFF057C3658BDBFA69DF9578B3DA735B64F18C7F20770A9D45CFCF7FCF563D6456A277DBEF78A02637CA2
310
43B90A490AEAB94F72244481D24819A6C0E59B606BFA4B3025981DBB48EAB701D97BF19C577CC77F2D1B6C55A9EF3C732474C0B727303F625995056C3B02963D9EAC146BE78EC5FCEC7FA999EBC5EACBAAE41B12D27B4D2C0BBA49F244E2ECDC81B76B502F113D8F5EE8FB1BE3111CDD4FC2AA9B844CAB1288B68AB90A7CDC
310
1C166AB0D3DC5310625FCC14E779BFD0709F8890A629C9292B1B2DED31A4B0DA928CEE135085754027E3018A397D4D5427D15BD1330B677DC8934285AC3DF45A9EB68FF8F2B8FC0A509AFEECFD0FF2DE25CC6047F7214B195F07EFEB9A094D800F7BFAE8FED187B78EA8A3A400F115961BCAD1215E47C966530AF0EE8128FE
310
58CEBB996A8964FFA529A046635D9353B0336A8F700DDF46271A024E70B0B37C9DE01847591E54DED53D54202AB947E4076556AC49C6CA5C9E1226B7F1A7B1BE15DEED62C41B91E1B3E9AFAAA735036547343A925075041DF0A9979E893B391F8FCFA6967B3EFB644DCF6E5CEBFAE272625DCC6FAF3FB93793C5F90CE1EF57
310
407342756B10D1C489E8953CD1617E5CEECAD6F4EF8914CE5D5D504E5C3F1F9736DA62CFC11E00BCDDB8CC8A9466349744C1F75EBDA4DF09BA8A9E8C7A7E9991989E20E5DBDD6A6003664ED8F7A04A8DBE0DF6EAD9B9AA858342E47399053949D2C146EDB85DE4B176BB0965FBAC19BD19AA918E27FA50C1D22402E144464C
310
59462568E704B6E71915404CB72B8FF4EDE184DDAF753F284990D2C6926782963815403548A70C657FDEF80D2D9CEAA2AE4C1C76F60BFE74219A06527D6582DF6412526107381E55E353090704D085B52408D0933C4ED159D79BDA71BB4BC506F4831350EB6F979CD22D69BF7AC49B91A2C0A9DDA3D5CA36AD20FC478E37E6
310
1844E2352865EBCB6EA275A652E3836BE04EFB400BF1A2556F515F1FBB35B2AB35BD889C744FFA1004B5544B121E57F70215746DD2F5E2C1412B602CBF19455AC6C8E5E9922C4E01E65215385004546899059180EAFCF7A707CE7017CD8CDB0410789AB32C63B91E5CEBBBACB17AC6CD347A022D5075FD106377347AAABA7E
310
7D11590744509B44E205134DC1290F06580320F78E537D3D73540E06CB970B431F185308AD40BBD794D6D77003C5A36E8EAA54BA64597CD8F83BD552A080A365F7FF06504B0304140006080000CC70623B000000000000000000000000350000006662782F39464131463745442D413632322D343644302D413938332D3331
310
353338454246344243312F76657274696365732E62696E504B0304140006080800CC70623BF270F1330600000004000000360000006662782F39464131463745442D413632322D343644302D413938332D3331353338454246344243312F747269616E676C65732E62696E636660600000504B0304140006080000CC70623B
310
000000000000000000000000370000006662782F39464131463745442D413632322D343644302D413938332D3331353338454246344243312F617474726962757465732E62696E504B0304140006080800CC70623B08DA0BD19000000041010000360000006662782F39464131463745442D413632322D343644302D413938
310
332D3331353338454246344243312F6469726563746F72792E786D6C858F410AC3201045AF22B36F53E9A60B35CBEEBAE80D244E44489C6234F4F835464A48035D0DF398FF9F8AF63D0E6CC63039F212F8F9020C7D47C6792B21C5FE7403D62A1188E2E60C98D7234A5830286103A55745067B9D86B8A3CF9C7F90C11DE607
310
FB144396D7B6A82D282E9A152AD114D5EF2CB866EEE831B8EEA07A7BB5A8D7D61A2BAAEB7FD5F70921FF497D00504B0304140006080800CC70623B0D6EF93BFE000000A00100003B0000006662782F39464131463745442D413632322D343644302D413938332D3331353338454246344243312F7265736F75726365732F63
310
6F72652E786D6C8D50596E833010BD0A9ADFCA60B334011947A8694ED00B586642AC041B79A97AFC9A40A5F6AF3F33A3B7689E1E3F7DCD8FEC139DD7D6F4C0720A191A65476DA61E62B892236427C19DB5E1970C322367EC618541F0C9D9B8EC90B226A009093576C41D94DE63804C3DD2D18357379C652E63480A7FCF17A9
310
EE72C29CE5894E3AC17D702940B63D59270887DE46A7D0F36263058F518FBB468FE9A7BE6A7420864373B8D4873369AA8691FA421B3294352543C5CAF65C0F6FEF43CB8BD52C78D0F34F46E550061C419494B6843142CB0F5677F4B52BEB177AEC28E5C52AFF638ACBF84F53D42654E51E77B379102C05791282176B5F693D
310
CB4C7BED567C03504B010214000A0000080000CC70623B3DEE336E79000000790000001B00000000000000000000000000000000006175746F6465736B2D64657369676E2D7061636B6167652E786D6C504B01021400140006080800CC70623BD486FD9CA0000000F40000001300000000000000000000000000B20000005B
310
436F6E74656E745F54797065735D2E786D6C504B01021400140006080800CC70623B1EC5D7A3EB0000007C010000080000000000000000000000000083010000636F72652E786D6C504B01021400140006080800CC70623B55019EA25F0000007C000000070000000000000000000000000094020000636E782E786D6C504B
310
01021400140006080800CC70623B8C9102E971010000D40300000C00000000000000000000000000180300006662782F636F72652E786D6C504B01021400140006080800CC70623BFFEA85907E0000009D0000000B00000000000000000000000000B30400006662782F636E782E786D6C504B01021400140006080800CC70
310
623B4FEEA4082C0100001202000031000000000000000000000000005A0500006662782F39464131463745442D413632322D343644302D413938332D3331353338454246344243312F636F72652E786D6C504B01021400140006080800CC70623BAD7543B64E010000330300003000000000000000000000000000D5060000
310
6662782F39464131463745442D413632322D343644302D413938332D3331353338454246344243312F636E782E786D6C504B01021400140006080800CC70623B16AB87BA640500003C1000003400000000000000000000000000710800006662782F39464131463745442D413632322D343644302D413938332D3331353338
310
454246344243312F6F626A656374732E786D6C504B01021400140006080000CC70623B0000000000000000000000003500000000000000000000000000270E00006662782F39464131463745442D413632322D343644302D413938332D3331353338454246344243312F76657274696365732E62696E504B01021400140006
310
080800CC70623BF270F133060000000400000036000000000000000000000000007A0E00006662782F39464131463745442D413632322D343644302D413938332D3331353338454246344243312F747269616E676C65732E62696E504B01021400140006080000CC70623B0000000000000000000000003700000000000000
310
000000000000D40E00006662782F39464131463745442D413632322D343644302D413938332D3331353338454246344243312F617474726962757465732E62696E504B01021400140006080800CC70623B08DA0BD190000000410100003600000000000000000000000000290F00006662782F39464131463745442D413632
310
322D343644302D413938332D3331353338454246344243312F6469726563746F72792E786D6C504B01021400140006080800CC70623B0D6EF93BFE000000A00100003B000000000000000000000000000D1000006662782F39464131463745442D413632322D343644302D413938332D3331353338454246344243312F7265
310
736F75726365732F636F72652E786D6C504B0506000000000E000E0080040000641100000000
  0
XRECORD
  5
10E9
102
{ACAD_REACTORS
330
173
102
}
330
173
100
AcDbXrecord
280
     1
102
MATERIAL
148
0.0
149
0.0
149
0.0
 93
        0
 94
      127
282
     0
 72
     1
 77
     1
171
     1
175
     1
179
     1
273
     0
  0
XRECORD
  5
175
102
{ACAD_REACTORS
330
173
102
}
330
173
100
AcDbXrecord
280
     1
270
     1
271
     1
  0
XRECORD
  5
174
102
{ACAD_REACTORS
330
173
102
}
330
173
100
AcDbXrecord
280
     1
270
     1
271
     1
  0
XRECORD
  5
1FB
102
{ACAD_REACTORS
330
173
102
}
330
173
100
AcDbXrecord
280
     1
 70
     0
 90
1673772943
  1
ECE7A1D2-D628-4531-984C-D00F80459256
310
504B03040A0000080000CC70623B3DEE336E79000000790000001B0000006175746F6465736B2D64657369676E2D7061636B6167652E786D6C3C3F786D6C2076657273696F6E3D22312E302220656E636F64696E673D227574662D3822203F3E3C666F726D6174733E3C666F726D61743E687474703A2F2F736368656D612E
310
6175746F6465736B2E636F6D2F64657369676E2D7061636B6167652F323030393C2F666F726D61743E3C2F666F726D6174733E504B0304140006080800CC70623BD486FD9CA0000000F4000000130000005B436F6E74656E745F54797065735D2E786D6C7D8EC10E82300C865F65E91D8A1E8C310C0EEA1BF002731658846E
310
D98AC1B77784ABF1D8FE5FBFBF75BBCE937A534CCEB38643598122B6FEE978D0B0485F9C41B54DDD7D022595594E1A469170414C76A4D9A4D207E29CF43ECE46F218070CC6BECC4078ACAA135ACF422C856C0E68EA1BF5669944DDD7BCDE7B1F8E415D77AECB980613C2E4AC91FC167A2B244592486606FC29C8FD7F045B9A
310
EF7053A7E60B504B0304140006080800CC70623BD9DDAED0EC0000007C01000008000000636F72652E786D6C8D90416EC3201045AF82665B61836D9CD8C2444DD39CA01740405C94182C03558F5F9C3852BBEB6A467FFE9B197D7EF89E6EE8CB2CC17A37002D0820E394D7D68D03A478C17B4007C117EFE32F1B20272733C0
310
2A83E0E3E2D3BC49CABB685CCCAAF3DA6CA20CC14440EA969B0182FA34932C648AD911AEC52CD5558EA6A0CF2EC329598D1E47ACCEFBECC59A050463A7EA5833865FEBDD0E37353BE3EE8DBDE3F6786A48D375FBF6CC78B9C282473B3DEFABC5C86834888A900E538A49F5419B9EB47DD5BC907D4F082F57FB1F28CDFA9F50
310
B22ED6D5F6EE030B20687EE43E10BC5CB3C8E51E54AE6B6EE207504B0304140006080800CC70623B55019EA25F0000007C00000007000000636E782E786D6C4DCB3B0E80201045D1AD90E915ED2CF8AC45050C11660C8261F98AB1B07AC9C97D42D718D865D3E909258CFD00CCE24AC6E326A164D74DC0B4128928FF326038
310
472BA13128B1252AC747C6BAB984FC68F0B87FE8960A5C09FE86CFB69FBA01504B0304140006080800CC70623BA24EB22D72010000D40300000C0000006662782F636F72652E786D6CC5535B6E833010BC8AE5DF0A6C5E49888CA3A6694ED00B38E05014B091B1518EDFE511A5A9D228FD2A1F60CDEC7A67C6986DCE4D8D7A
310
69BA4AAB0C073EC548AA5C17952A33ECECD15B61B4E1CC686DBF9561A44423333CC098B3D268D7CE50AE9595CA02AA74216750749DB418E5352C32DCE59FB211BE70162ABA93DF8AFC244AE9073ED050C759670D0840D390E18DF9F1706664C23973AE2A66B62A605A75ACA4C13C4976E1364A12EF355A2EBD384AF65EFA96
310
BC7B8BED2EA6719AAE16FB8491A199335B351775B991C2CA02F390D2D40B028F861F41BCA68B7518BFD0D59A524686F29B26D7164F36B94AD9289CE54E6D1DE6010819891F6E21228B3AD1831EC219194284CF98F06DD01008846CC5A1BEF83801D4CBDC6A1303536877A57A513B0953A94FC707FDBE6064EA84A9E3E6E0FA
310
EE8CF0E9198F7784A316AA0413C2C2F2E0ECA0934D1AE6D05A69BCDE9E91D2A611F573361E38FC1375157F5752AE6B6DFE4B11990F88CCBF0719EE23FF02504B0304140006080800CC70623B408A7D3B7C0000009D0000000B0000006662782F636E782E786D6C4DCCD10A83201886E15B91FFDC552A92A0064DBC8F581632
310
D3703A76F9ABD1C18E3E78F878E5F0D9027ABBFCF2292AE86E2D20171F69F6715550CB827B40839639A5F2770314A7CD293819B45C73AAFB45B35BA61ACAA1C1C7E7855C58C15BC331339661262CC762340413D68D77DA5B42298546CBE6573AF60CEB2F504B0304140006080800CC70623B449FB9BD290100001202000031
310
0000006662782F36394639363044362D344446342D343946362D394244322D3234314243333846323333332F636F72652E786D6C8D515B6EC32010BC0AE22B55850D98B871848994463E412FE002495162B07854397EA176A4F62F3F2C9A9D991D587EB84F37F0AD7D30CEF6905418026DA553C65E7A98E219ED203808EE9D
310
8B7F6810D871D23D2C3014FCE25D9A57483A1BB58D19B54EE9151C43D0110279CB971E06F9A5A7B11A53CC8C70ADE6515EC78BAE4895DB992778883E0700CB907242D17643D7E2538BD869608875438BBAE38922CAC8F1BDD90DB4691A5E2F42C153326A951B95E398B3D1FE599322163C9AE9115F7A3D46ADA0A018778810
310
84E907617BDCEE297BC5BB3DC6BC2EF47FA234AB2745C9D8D8D035EE220B50105E2F0DC1954B9FB747187D9F9D8FA0CCDB042D5FA0C015C65B42DF78BD10F3F3B363CB56C7109DCFDFBBB97E662ED92EB62D13BC2E1BCAE5777DB9966D8A1F504B0304140006080800CC70623BAD7543B64E01000033030000300000006662
310
782F36394639363044362D344446342D343946362D394244322D3234314243333846323333332F636E782E786D6CD593CD6EC32010845F0571AD6CE3D48AD20813A9873E410FBD12D82434182C7EAAE6EDBB2424CD25871E7B41D6EC30B3FA84F9E67BB2E40B4234DE8DB46F1925E094D7C6ED479AD3AE5951B2113C789FEE
310
6C943839C1488B4C05DF079FE72A69D8C96C13AAD6B8631503449F83828872B949AC57D26200B826A308D316B4064D6E46FCDA41C05550DC9E483A00797BFD207EFB092A45DE9514C1BBD22178396BD39D891265658C238DEA00936C654E5E433CB65A26D9F6EDB5EBC14EBF49A45CB856E66048291F6939A9A81BB5C89177
310
38143CA680F4AA299D66A042CEB3354A2684DC9D8D178FE0D9B8B41CAAD720F880EE7EF93C0C18769E099ECC04D5A102C8049A8A05632F4DDF376CF1DE0F6BB65C2F8627B65A33C6BB62177CEBBDAD973006829F89F22E814B54F4BC2BE347F8AA8F681390B50FA73F804400B5F542E796F19FF974E7F78DB802FE05E20750
310
4B0304140006080800CC70623B8D05915C650500003B100000340000006662782F36394639363044362D344446342D343946362D394244322D3234314243333846323333332F6F626A656374732E786D6CAD575B6FA33814FE2B887D06429276DA1565D4266D158D3A339A6846FB502932E050B66023DB74D2FDF5FB190C01
310
9276B2973C046C8ECFF53B17071F77456EBD502133CEAE6CDF9DD81665314F32965ED995DA3A17B6F5310C04E7AA47665B8C14F4CAD6DB7618A48257A5D94AE89654B91AEDDEDDFC61C998326A5B714EA4BCB265FC440BE2924AF184CA6737218AB8E976E7FA6E4338649B0A523E8D98964450A6A029F619B8588D52FE7039
310
B1BD30F0F4F730D0FF866AF6369557DB33949F31A9088B0F848DD8CCFCF9F2767A76E99CCDE733677E3EF59D9BBB9BA5E37F984D16E78BC5E5F5ED25044B25C0C96822E8D60EEFE11B91C581D77CEA34368A1F5329E68CD1B8B61F16D63A1B8E092D294B10C78C4A48EB593D192E7DED9BDEE7995E1B91FDEDD3ACEA9FE831
310
6A756F9F7D4D79F4274C90A7A04248AA51D5F8C718DAE06FB2F75AC4796EBE65D22A88A22223B995679120E2D50E41AA49C260C046A35368846B0BECD0DFF3EBEB8AD4F835768F69B9ADF25C43D30E6B646F807FAA64AD59F61715C7A54127C4AACA98BA3006A9D792DAE165E0D59B61A01FB3A9F9D838D2DAE62445C86166
310
F37564E842E7DE6A69879FEEA2DD5AE7E371E1A5E025154AC307D06A03D73EB5978C58FFA4C8E9033066E0F3BD53BEC1F39F91BE7B55103791EDE6BBB991A2046172CB4581D8B893FA674DDA17A77B3B7C413D1B511FD2743BFF8A38F03A658705E3ADF8015C3A3417FF3D7E439FF591DA0B5F18BC20C1B8981957AE6392A3
310
F43C640C01D1A0B4728E2DD4F26DB4B3C3152A252A3B4E913CEC1C72F012782FF88EFF8637AA552DBEF76408E8A8DE9E50F9E1CB3A2DA0DB1B6039A893B56063DC5B3E3FFB5F72E67AB9FEB4AEC496C4F4C1149625DD662C53E89D7BF0F6151A046260D1337DFDC94502430F83B0EE07A130A224BCAD7DAE1D9FB6CD422FF6
310
920702629C4BB9AE79C12F243C6432A6794E18E5552BA56B431AAB5D91317302B2B071E86C3A42B1A02F999E24061403B5D0EB639195DA655DD3EBEAB4FB862DDF579F014AD0E73C22F99E28DA57FB98E75C6CA2D74D53086D600F4786E0FE3144B771A8A7B900F03594DB8A633CBC49B2EDB69228BB479CF863B5E807AAAB
310
23872F6DFEB4129B949CA33823F58830E86D65621E10047D9DB34D862E8EAC3C2ABC2F7B2C40D67CDFE01F5545B92105AF983AC54D93D69E56FB8E797F88913F898A9FEC705D3F9D1B54EC8426FB500D40A03BD0119B06E1B95DDC7EB8F6975367793EBD70E66733DFB9BC982F9CE564727731999F5D4ECFCE3B8D6A4DC2A0
310
6D50FD148437D110834A64C6CDDF57FBACB5C307A2A477DFE4939736CFEF2B175371E0E10CF0DD1D5C15654E0BCA14D1E87DD02FF93782A162C0A3D95F1524A52770F972BF1EE9809D13CE7DD599467F8ECE9ADD85CE85A34CD45355448C64F9E8A031DC2D596ACC6E5DD93D9B82DE2EF5CAF81363A8E47996A0DE24564A79
310
4115AACE09C55E14540231FDA13C319787134EBF34E3A022514E5B4D9E0826E25C02D5805B15ABE1BEF51B26383D445DD9E875EE33FE4C22DA16427D65A3BCA92CA6D28DD01DF5DC53330704308475351050232CCD31583787BA75774AFB06E5070DD0C8EF484E19968C5D83BA5B90B244D31E54D55A372320FE4786B7EA58
310
44E135AA5467CB7EA333A61683CC6A8C3257034C10CF46F40EF9F5BE59BE5BD30C3C72D235E95D10345C1D45445A5F0BB47E46A5EBE5570F9380B5FA629579952296A773720405982B9DE04011506178964401AA8BDF1FBF0A8EAB6861DD6580C0E38217056766716DAEB2D6FA0917D3E4116581EADB879C4E7CFFB11EFACD
310
3D641311495D92C8676CB409A72D18610D803CE8A626049E8EC1887CB5B44CC39883690DDA8399B4B9855B481E7D71D4A9D22F96E5BB73BF5793020C02137BF837504B0304140006080000CC70623B000000000000000000000000350000006662782F36394639363044362D344446342D343946362D394244322D32343142
310
43333846323333332F76657274696365732E62696E504B0304140006080800CC70623BF270F1330600000004000000360000006662782F36394639363044362D344446342D343946362D394244322D3234314243333846323333332F747269616E676C65732E62696E636660600000504B0304140006080000CC70623B0000
310
00000000000000000000370000006662782F36394639363044362D344446342D343946362D394244322D3234314243333846323333332F617474726962757465732E62696E504B0304140006080800CC70623B08DA0BD19000000041010000360000006662782F36394639363044362D344446342D343946362D394244322D
310
3234314243333846323333332F6469726563746F72792E786D6C858F410AC3201045AF22B36F53E9A60B35CBEEBAE80D244E44489C6234F4F835464A48035D0DF398FF9F8AF63D0E6CC63039F212F8F9020C7D47C6792B21C5FE7403D62A1188E2E60C98D7234A5830286103A55745067B9D86B8A3CF9C7F90C11DE607FB14
310
4396D7B6A82D282E9A152AD114D5EF2CB866EEE831B8EEA07A7BB5A8D7D61A2BAAEB7FD5F70921FF497D00504B0304140006080800CC70623BCA768048FE000000A00100003B0000006662782F36394639363044362D344446342D343946362D394244322D3234314243333846323333332F7265736F75726365732F636F72
310
652E786D6C8D50596E833010BD0A9ADFCA60D600328E9AA639412F609909B1126CE4A5EAF16B0295DABFFECC8CDEA2797AECF8353F924FB44E193D409E5248504B332A3D0D10FC95B4901C39B3C6F85F3248B49871801506CE266BC2B243D2688FDA47549B11775038871E12F988C7004EDE7016A9083E2ADC3D5D84BC8B09
310
D33C8D74D471E6BC8D0192EDC93A815B742658898E651BCB59086ADC356A8C3FD555A1055ED7E7E254D615792D0F075295F585746FF53B694EE78A565DD736979A65AB9933AFE69F8CD2A2F038022F28ED489E135A7CE4554F9BBEA85E68DB53CAB255FEC71496F19FA6A0B42F8B3DEE6673C0F318E4497096AD7DC5F52C33
310
EEB55BFE0D504B010214000A0000080000CC70623B3DEE336E79000000790000001B00000000000000000000000000000000006175746F6465736B2D64657369676E2D7061636B6167652E786D6C504B01021400140006080800CC70623BD486FD9CA0000000F40000001300000000000000000000000000B20000005B436F
310
6E74656E745F54797065735D2E786D6C504B01021400140006080800CC70623BD9DDAED0EC0000007C010000080000000000000000000000000083010000636F72652E786D6C504B01021400140006080800CC70623B55019EA25F0000007C000000070000000000000000000000000095020000636E782E786D6C504B0102
310
1400140006080800CC70623BA24EB22D72010000D40300000C00000000000000000000000000190300006662782F636F72652E786D6C504B01021400140006080800CC70623B408A7D3B7C0000009D0000000B00000000000000000000000000B50400006662782F636E782E786D6C504B01021400140006080800CC70623B
310
449FB9BD290100001202000031000000000000000000000000005A0500006662782F36394639363044362D344446342D343946362D394244322D3234314243333846323333332F636F72652E786D6C504B01021400140006080800CC70623BAD7543B64E010000330300003000000000000000000000000000D20600006662
310
782F36394639363044362D344446342D343946362D394244322D3234314243333846323333332F636E782E786D6C504B01021400140006080800CC70623B8D05915C650500003B10000034000000000000000000000000006E0800006662782F36394639363044362D344446342D343946362D394244322D32343142433338
310
46323333332F6F626A656374732E786D6C504B01021400140006080000CC70623B0000000000000000000000003500000000000000000000000000250E00006662782F36394639363044362D344446342D343946362D394244322D3234314243333846323333332F76657274696365732E62696E504B010214001400060808
310
00CC70623BF270F13306000000040000003600000000000000000000000000780E00006662782F36394639363044362D344446342D343946362D394244322D3234314243333846323333332F747269616E676C65732E62696E504B01021400140006080000CC70623B00000000000000000000000037000000000000000000
310
00000000D20E00006662782F36394639363044362D344446342D343946362D394244322D3234314243333846323333332F617474726962757465732E62696E504B01021400140006080800CC70623B08DA0BD190000000410100003600000000000000000000000000270F00006662782F36394639363044362D344446342D
310
343946362D394244322D3234314243333846323333332F6469726563746F72792E786D6C504B01021400140006080800CC70623BCA768048FE000000A00100003B000000000000000000000000000B1000006662782F36394639363044362D344446342D343946362D394244322D3234314243333846323333332F7265736F
310
75726365732F636F72652E786D6C504B0506000000000E000E0080040000621100000000
  0
XRECORD
  5
176
102
{ACAD_REACTORS
330
173
102
}
330
173
100
AcDbXrecord
280
     1
270
     1
271
     1
  0
XRECORD
  5
177
102
{ACAD_REACTORS
330
173
102
}
330
173
100
AcDbXrecord
280
     1
270
     1
271
     1
  0
XRECORD
  5
1449
102
{ACAD_REACTORS
330
1448
102
}
330
1448
100
AcDbXrecord
280
     1
102
DISPLAYNAME
  1
Metric50
102
FLAGS
 90
        0
  0
CELLSTYLEMAP
  5
140D
102
{ACAD_REACTORS
330
162
102
}
330
162
100
AcDbCellStyleMap
 90
        3
300
CELLSTYLE
  1
TABLEFORMAT_BEGIN
 90
        5
170
     1
 91
        0
 92
    32768
 62
   257
 93
        1
300
CONTENTFORMAT
  1
CONTENTFORMAT_BEGIN
 90
        0
 91
        0
 92
      512
 93
        0
300

 40
0.0
140
1.0
 94
        5
 62
     0
340
11
144
6.0
309
CONTENTFORMAT_END
171
     1
301
MARGIN
  1
CELLMARGIN_BEGIN
 40
1.5
 40
1.5
 40
1.5
 40
1.5
 40
0.18
 40
0.18
309
CELLMARGIN_END
 94
        6
 95
        1
302
GRIDFORMAT
  1
GRIDFORMAT_BEGIN
 90
        0
 91
        1
 62
     0
 92
       -2
340
14
 93
        0
 40
1.125
309
GRIDFORMAT_END
 95
        2
302
GRIDFORMAT
  1
GRIDFORMAT_BEGIN
 90
        0
 91
        1
 62
     0
 92
       -2
340
14
 93
        0
 40
1.125
309
GRIDFORMAT_END
 95
        4
302
GRIDFORMAT
  1
GRIDFORMAT_BEGIN
 90
        0
 91
        1
 62
     0
 92
       -2
340
14
 93
        0
 40
1.125
309
GRIDFORMAT_END
 95
        8
302
GRIDFORMAT
  1
GRIDFORMAT_BEGIN
 90
        0
 91
        1
 62
     0
 92
       -2
340
14
 93
        0
 40
1.125
309
GRIDFORMAT_END
 95
       16
302
GRIDFORMAT
  1
GRIDFORMAT_BEGIN
 90
        0
 91
        1
 62
     0
 92
       -2
340
14
 93
        0
 40
1.125
309
GRIDFORMAT_END
 95
       32
302
GRIDFORMAT
  1
GRIDFORMAT_BEGIN
 90
        0
 91
        1
 62
     0
 92
       -2
340
14
 93
        0
 40
1.125
309
GRIDFORMAT_END
309
TABLEFORMAT_END
  1
CELLSTYLE_BEGIN
 90
        1
 91
        1
300
_TITLE
309
CELLSTYLE_END
300
CELLSTYLE
  1
TABLEFORMAT_BEGIN
 90
        5
170
     1
 91
        0
 92
        0
 62
   257
 93
        1
300
CONTENTFORMAT
  1
CONTENTFORMAT_BEGIN
 90
        0
 91
        0
 92
      512
 93
        0
300

 40
0.0
140
1.0
 94
        5
 62
     0
340
11
144
4.5
309
CONTENTFORMAT_END
171
     1
301
MARGIN
  1
CELLMARGIN_BEGIN
 40
1.5
 40
1.5
 40
1.5
 40
1.5
 40
0.18
 40
0.18
309
CELLMARGIN_END
 94
        6
 95
        1
302
GRIDFORMAT
  1
GRIDFORMAT_BEGIN
 90
        0
 91
        1
 62
     0
 92
       -2
340
14
 93
        0
 40
1.125
309
GRIDFORMAT_END
 95
        2
302
GRIDFORMAT
  1
GRIDFORMAT_BEGIN
 90
        0
 91
        1
 62
     0
 92
       -2
340
14
 93
        0
 40
1.125
309
GRIDFORMAT_END
 95
        4
302
GRIDFORMAT
  1
GRIDFORMAT_BEGIN
 90
        0
 91
        1
 62
     0
 92
       -2
340
14
 93
        0
 40
1.125
309
GRIDFORMAT_END
 95
        8
302
GRIDFORMAT
  1
GRIDFORMAT_BEGIN
 90
        0
 91
        1
 62
     0
 92
       -2
340
14
 93
        0
 40
1.125
309
GRIDFORMAT_END
 95
       16
302
GRIDFORMAT
  1
GRIDFORMAT_BEGIN
 90
        0
 91
        1
 62
     0
 92
       -2
340
14
 93
        0
 40
1.125
309
GRIDFORMAT_END
 95
       32
302
GRIDFORMAT
  1
GRIDFORMAT_BEGIN
 90
        0
 91
        1
 62
     0
 92
       -2
340
14
 93
        0
 40
1.125
309
GRIDFORMAT_END
309
TABLEFORMAT_END
  1
CELLSTYLE_BEGIN
 90
        2
 91
        1
300
_HEADER
309
CELLSTYLE_END
300
CELLSTYLE
  1
TABLEFORMAT_BEGIN
 90
        5
170
     1
 91
        0
 92
        0
 62
   257
 93
        1
300
CONTENTFORMAT
  1
CONTENTFORMAT_BEGIN
 90
        0
 91
        0
 92
      512
 93
        0
300

 40
0.0
140
1.0
 94
        2
 62
     0
340
11
144
4.5
309
CONTENTFORMAT_END
171
     1
301
MARGIN
  1
CELLMARGIN_BEGIN
 40
1.5
 40
1.5
 40
1.5
 40
1.5
 40
0.18
 40
0.18
309
CELLMARGIN_END
 94
        6
 95
        1
302
GRIDFORMAT
  1
GRIDFORMAT_BEGIN
 90
        0
 91
        1
 62
     0
 92
       -2
340
14
 93
        0
 40
1.125
309
GRIDFORMAT_END
 95
        2
302
GRIDFORMAT
  1
GRIDFORMAT_BEGIN
 90
        0
 91
        1
 62
     0
 92
       -2
340
14
 93
        0
 40
1.125
309
GRIDFORMAT_END
 95
        4
302
GRIDFORMAT
  1
GRIDFORMAT_BEGIN
 90
        0
 91
        1
 62
     0
 92
       -2
340
14
 93
        0
 40
1.125
309
GRIDFORMAT_END
 95
        8
302
GRIDFORMAT
  1
GRIDFORMAT_BEGIN
 90
        0
 91
        1
 62
     0
 92
       -2
340
14
 93
        0
 40
1.125
309
GRIDFORMAT_END
 95
       16
302
GRIDFORMAT
  1
GRIDFORMAT_BEGIN
 90
        0
 91
        1
 62
     0
 92
       -2
340
14
 93
        0
 40
1.125
309
GRIDFORMAT_END
 95
       32
302
GRIDFORMAT
  1
GRIDFORMAT_BEGIN
 90
        0
 91
        1
 62
     0
 92
       -2
340
14
 93
        0
 40
1.125
309
GRIDFORMAT_END
309
TABLEFORMAT_END
  1
CELLSTYLE_BEGIN
 90
        3
 91
        2
300
_DATA
309
CELLSTYLE_END
  0
XRECORD
  5
1417
102
{ACAD_REACTORS
330
162
102
}
330
162
100
AcDbXrecord
280
     1
102
ACAD_ROUNDTRIP_PRE2007_TABLESTYLE
 90
      512
 91
        0
  1

 92
      512
 93
        0
  2

 94
      512
 95
        0
  3

  0
XRECORD
  5
1423
102
{ACAD_REACTORS
330
1422
102
}
330
1422
100
AcDbXrecord
280
     1
102
RTVSPost2010Prop28
280
     1
102
RTVSPost2010PropOp28
 70
     1
102
RTVSPost2010Prop29
280
     1
102
RTVSPost2010PropOp29
 70
     1
102
RTVSPost2010Prop30
280
     0
102
RTVSPost2010PropOp30
 70
     1
102
RTVSPost2010Prop31
280
     0
102
RTVSPost2010PropOp31
 70
     1
102
RTVSPost2010Prop32
280
     0
102
RTVSPost2010PropOp32
 70
     1
102
RTVSPost2010Prop33
280
     0
102
RTVSPost2010PropOp33
 70
     1
102
RTVSPost2010Prop34
280
     0
102
RTVSPost2010PropOp34
 70
     1
102
RTVSPost2010Prop35
280
     0
102
RTVSPost2010PropOp35
 70
     1
102
RTVSPost2010Prop36
280
     0
102
RTVSPost2010PropOp36
 70
     1
102
RTVSPost2010Prop37
 90
       50
102
RTVSPost2010PropOp37
 70
     1
102
RTVSPost2010Prop38
140
0.0
102
RTVSPost2010PropOp38
 70
     1
102
RTVSPost2010Prop39
140
1.0
102
RTVSPost2010PropOp39
 70
     1
102
RTVSPost2010Prop40
 90
        0
102
RTVSPost2010PropOp40
 70
     1
102
RTVSPost2010Prop41ColorIndex
 90
       18
102
RTVSPost2010Prop41ColorRGB
 90
        0
102
RTVSPost2010PropOp41
 70
     1
102
RTVSPost2010Prop42
 90
       50
102
RTVSPost2010PropOp42
 70
     1
102
RTVSPost2010Prop43
 90
        3
102
RTVSPost2010PropOp43
 70
     1
102
RTVSPost2010Prop44ColorIndex
 90
        5
102
RTVSPost2010Prop44ColorRGB
 90
      255
102
RTVSPost2010PropOp44
 70
     1
102
RTVSPost2010Prop45
280
     0
102
RTVSPost2010PropOp45
 70
     1
102
RTVSPost2010Prop46
 90
       50
102
RTVSPost2010PropOp46
 70
     1
102
RTVSPost2010Prop47
 90
       50
102
RTVSPost2010PropOp47
 70
     1
102
RTVSPost2010Prop48
 90
       50
102
RTVSPost2010PropOp48
 70
     1
102
RTVSPost2010Prop49
280
     0
102
RTVSPost2010PropOp49
 70
     1
102
RTVSPost2010Prop50
 90
       50
102
RTVSPost2010PropOp50
 70
     1
102
RTVSPost2010Prop51ColorIndex
 90
      256
102
RTVSPost2010Prop51ColorRGB
 90
-16777216
102
RTVSPost2010PropOp51
 70
     0
102
RTVSPost2010Prop52
140
1.0
102
RTVSPost2010PropOp52
 70
     0
102
RTVSPost2010Prop53
 90
        2
102
RTVSPost2010PropOp53
 70
     1
102
RTVSPost2010Prop54
  1
strokes_ogs.tif
102
RTVSPost2010PropOp54
 70
     1
102
RTVSPost2010Prop55
280
     0
102
RTVSPost2010PropOp55
 70
     1
102
RTVSPost2010Prop56
140
1.0
102
RTVSPost2010PropOp56
 70
     1
102
RTVSPost2010Prop57
140
1.0
102
RTVSPost2010PropOp57
 70
     1
102
RTVSPropertyOp0
 70
     1
102
RTVSPropertyOp1
 70
     1
102
RTVSPropertyOp2
 70
     1
102
RTVSPropertyOp3
 70
     1
102
RTVSPropertyOp4
 70
     1
102
RTVSPropertyOp5
 70
     1
102
RTVSPropertyOp6
 70
     1
102
RTVSPropertyOp7
 70
     1
102
RTVSPropertyOp8
 70
     1
102
RTVSPropertyOp9
 70
     1
102
RTVSPropertyOp10
 70
     1
102
RTVSPropertyOp11
 70
     1
102
RTVSPropertyOp12
 70
     1
102
RTVSPropertyOp13
 70
     1
102
RTVSPropertyOp14
 70
     1
102
RTVSPropertyOp15
 70
     1
102
RTVSPropertyOp16
 70
     1
102
RTVSPropertyOp17
 70
     1
102
RTVSPropertyOp18
 70
     1
102
RTVSPropertyOp19
 70
     1
102
RTVSPropertyOp20
 70
     1
102
RTVSPropertyOp21
 70
     1
102
RTVSPropertyOp22
 70
     1
102
RTVSPropertyOp23
 70
     1
102
RTVSPropertyOp24
 70
     1
102
RTVSPropertyOp25
 70
     1
102
RTVSPropertyOp26
 70
     1
102
RTVSPropertyOp27
 70
     1
102
RTVSPropertyOp28
 70
     1
102
RTVSPropertyOp29
 70
     1
102
RTVSPropertyOp30
 70
     1
102
RTVSPropertyOp31
 70
     1
102
RTVSPropertyOp32
 70
     1
102
RTVSPropertyOp33
 70
     1
102
RTVSPropertyOp34
 70
     1
102
RTVSPropertyOp35
 70
     1
102
RTVSPropertyOp36
 70
     1
102
RTVSPropertyOp37
 70
     1
102
RTVSPropertyOp38
 70
     1
102
RTVSPropertyOp39
 70
     1
102
RTVSPropertyOp40
 70
     1
102
RTVSPropertyOp41
 70
     1
102
RTVSPropertyOp42
 70
     1
102
RTVSPropertyOp43
 70
     1
102
RTVSPropertyOp44
 70
     1
102
RTVSPropertyOp45
 70
     1
102
RTVSPropertyOp46
 70
     1
102
RTVSPropertyOp47
 70
     1
102
RTVSPropertyOp48
 70
     1
102
RTVSPropertyOp49
 70
     1
102
RTVSPropertyOp50
 70
     1
102
RTVSPropertyOp51
 70
     0
102
RTVSPropertyOp52
 70
     0
102
RTVSPropertyOp53
 70
     1
102
RTVSPropertyOp54
 70
     1
102
RTVSPropertyOp55
 70
     1
102
RTVSPropertyOp56
 70
     1
102
RTVSPropertyOp57
 70
     1
102
RTVSPropertyOp58
 70
     1
102
RTVSPropertyOp59
 70
     1
102
RTVSPropertyOp60
 70
     1
102
RTVSPropertyOp61
 70
     1
102
RTVSPropertyOp62
 70
     1
  0
XRECORD
  5
1421
102
{ACAD_REACTORS
330
1420
102
}
330
1420
100
AcDbXrecord
280
     1
102
RTVSPost2010Prop28
280
     0
102
RTVSPost2010PropOp28
 70
     1
102
RTVSPost2010Prop29
280
     1
102
RTVSPost2010PropOp29
 70
     1
102
RTVSPost2010Prop30
280
     1
102
RTVSPost2010PropOp30
 70
     1
102
RTVSPost2010Prop31
280
     0
102
RTVSPost2010PropOp31
 70
     1
102
RTVSPost2010Prop32
280
     0
102
RTVSPost2010PropOp32
 70
     1
102
RTVSPost2010Prop33
280
     0
102
RTVSPost2010PropOp33
 70
     1
102
RTVSPost2010Prop34
280
     0
102
RTVSPost2010PropOp34
 70
     1
102
RTVSPost2010Prop35
280
     0
102
RTVSPost2010PropOp35
 70
     1
102
RTVSPost2010Prop36
280
     0
102
RTVSPost2010PropOp36
 70
     1
102
RTVSPost2010Prop37
 90
       50
102
RTVSPost2010PropOp37
 70
     1
102
RTVSPost2010Prop38
140
0.0
102
RTVSPost2010PropOp38
 70
     1
102
RTVSPost2010Prop39
140
1.0
102
RTVSPost2010PropOp39
 70
     1
102
RTVSPost2010Prop40
 90
        0
102
RTVSPost2010PropOp40
 70
     1
102
RTVSPost2010Prop41ColorIndex
 90
       18
102
RTVSPost2010Prop41ColorRGB
 90
        0
102
RTVSPost2010PropOp41
 70
     1
102
RTVSPost2010Prop42
 90
       50
102
RTVSPost2010PropOp42
 70
     1
102
RTVSPost2010Prop43
 90
        3
102
RTVSPost2010PropOp43
 70
     1
102
RTVSPost2010Prop44ColorIndex
 90
        5
102
RTVSPost2010Prop44ColorRGB
 90
      255
102
RTVSPost2010PropOp44
 70
     1
102
RTVSPost2010Prop45
280
     0
102
RTVSPost2010PropOp45
 70
     1
102
RTVSPost2010Prop46
 90
       50
102
RTVSPost2010PropOp46
 70
     1
102
RTVSPost2010Prop47
 90
       50
102
RTVSPost2010PropOp47
 70
     1
102
RTVSPost2010Prop48
 90
       50
102
RTVSPost2010PropOp48
 70
     1
102
RTVSPost2010Prop49
280
     0
102
RTVSPost2010PropOp49
 70
     1
102
RTVSPost2010Prop50
 90
       50
102
RTVSPost2010PropOp50
 70
     1
102
RTVSPost2010Prop51ColorIndex
 90
      256
102
RTVSPost2010Prop51ColorRGB
 90
-16777216
102
RTVSPost2010PropOp51
 70
     0
102
RTVSPost2010Prop52
140
1.0
102
RTVSPost2010PropOp52
 70
     0
102
RTVSPost2010Prop53
 90
        2
102
RTVSPost2010PropOp53
 70
     1
102
RTVSPost2010Prop54
  1
strokes_ogs.tif
102
RTVSPost2010PropOp54
 70
     1
102
RTVSPost2010Prop55
280
     0
102
RTVSPost2010PropOp55
 70
     1
102
RTVSPost2010Prop56
140
1.0
102
RTVSPost2010PropOp56
 70
     1
102
RTVSPost2010Prop57
140
1.0
102
RTVSPost2010PropOp57
 70
     1
102
RTVSPropertyOp0
 70
     1
102
RTVSPropertyOp1
 70
     1
102
RTVSPropertyOp2
 70
     1
102
RTVSPropertyOp3
 70
     1
102
RTVSPropertyOp4
 70
     1
102
RTVSPropertyOp5
 70
     1
102
RTVSPropertyOp6
 70
     1
102
RTVSPropertyOp7
 70
     1
102
RTVSPropertyOp8
 70
     1
102
RTVSPropertyOp9
 70
     1
102
RTVSPropertyOp10
 70
     1
102
RTVSPropertyOp11
 70
     1
102
RTVSPropertyOp12
 70
     1
102
RTVSPropertyOp13
 70
     1
102
RTVSPropertyOp14
 70
     1
102
RTVSPropertyOp15
 70
     1
102
RTVSPropertyOp16
 70
     1
102
RTVSPropertyOp17
 70
     1
102
RTVSPropertyOp18
 70
     1
102
RTVSPropertyOp19
 70
     1
102
RTVSPropertyOp20
 70
     1
102
RTVSPropertyOp21
 70
     1
102
RTVSPropertyOp22
 70
     1
102
RTVSPropertyOp23
 70
     1
102
RTVSPropertyOp24
 70
     1
102
RTVSPropertyOp25
 70
     1
102
RTVSPropertyOp26
 70
     1
102
RTVSPropertyOp27
 70
     1
102
RTVSPropertyOp28
 70
     1
102
RTVSPropertyOp29
 70
     1
102
RTVSPropertyOp30
 70
     1
102
RTVSPropertyOp31
 70
     1
102
RTVSPropertyOp32
 70
     1
102
RTVSPropertyOp33
 70
     1
102
RTVSPropertyOp34
 70
     1
102
RTVSPropertyOp35
 70
     1
102
RTVSPropertyOp36
 70
     1
102
RTVSPropertyOp37
 70
     1
102
RTVSPropertyOp38
 70
     1
102
RTVSPropertyOp39
 70
     1
102
RTVSPropertyOp40
 70
     1
102
RTVSPropertyOp41
 70
     1
102
RTVSPropertyOp42
 70
     1
102
RTVSPropertyOp43
 70
     1
102
RTVSPropertyOp44
 70
     1
102
RTVSPropertyOp45
 70
     1
102
RTVSPropertyOp46
 70
     1
102
RTVSPropertyOp47
 70
     1
102
RTVSPropertyOp48
 70
     1
102
RTVSPropertyOp49
 70
     1
102
RTVSPropertyOp50
 70
     1
102
RTVSPropertyOp51
 70
     0
102
RTVSPropertyOp52
 70
     0
102
RTVSPropertyOp53
 70
     1
102
RTVSPropertyOp54
 70
     1
102
RTVSPropertyOp55
 70
     1
102
RTVSPropertyOp56
 70
     1
102
RTVSPropertyOp57
 70
     1
102
RTVSPropertyOp58
 70
     1
102
RTVSPropertyOp59
 70
     1
102
RTVSPropertyOp60
 70
     1
102
RTVSPropertyOp61
 70
     1
102
RTVSPropertyOp62
 70
     1
  0
XRECORD
  5
142F
102
{ACAD_REACTORS
330
142E
102
}
330
142E
100
AcDbXrecord
280
     1
102
RTVSPost2010Prop28
280
     0
102
RTVSPost2010PropOp28
 70
     1
102
RTVSPost2010Prop29
280
     1
102
RTVSPost2010PropOp29
 70
     1
102
RTVSPost2010Prop30
280
     1
102
RTVSPost2010PropOp30
 70
     1
102
RTVSPost2010Prop31
280
     0
102
RTVSPost2010PropOp31
 70
     1
102
RTVSPost2010Prop32
280
     0
102
RTVSPost2010PropOp32
 70
     1
102
RTVSPost2010Prop33
280
     0
102
RTVSPost2010PropOp33
 70
     1
102
RTVSPost2010Prop34
280
     0
102
RTVSPost2010PropOp34
 70
     1
102
RTVSPost2010Prop35
280
     0
102
RTVSPost2010PropOp35
 70
     1
102
RTVSPost2010Prop36
280
     0
102
RTVSPost2010PropOp36
 70
     1
102
RTVSPost2010Prop37
 90
       50
102
RTVSPost2010PropOp37
 70
     1
102
RTVSPost2010Prop38
140
0.0
102
RTVSPost2010PropOp38
 70
     1
102
RTVSPost2010Prop39
140
1.0
102
RTVSPost2010PropOp39
 70
     1
102
RTVSPost2010Prop40
 90
        0
102
RTVSPost2010PropOp40
 70
     1
102
RTVSPost2010Prop41ColorIndex
 90
       18
102
RTVSPost2010Prop41ColorRGB
 90
        0
102
RTVSPost2010PropOp41
 70
     1
102
RTVSPost2010Prop42
 90
       50
102
RTVSPost2010PropOp42
 70
     1
102
RTVSPost2010Prop43
 90
        3
102
RTVSPost2010PropOp43
 70
     1
102
RTVSPost2010Prop44ColorIndex
 90
        5
102
RTVSPost2010Prop44ColorRGB
 90
      255
102
RTVSPost2010PropOp44
 70
     1
102
RTVSPost2010Prop45
280
     0
102
RTVSPost2010PropOp45
 70
     1
102
RTVSPost2010Prop46
 90
       50
102
RTVSPost2010PropOp46
 70
     1
102
RTVSPost2010Prop47
 90
       50
102
RTVSPost2010PropOp47
 70
     1
102
RTVSPost2010Prop48
 90
       50
102
RTVSPost2010PropOp48
 70
     1
102
RTVSPost2010Prop49
280
     0
102
RTVSPost2010PropOp49
 70
     1
102
RTVSPost2010Prop50
 90
       50
102
RTVSPost2010PropOp50
 70
     1
102
RTVSPost2010Prop51ColorIndex
 90
      256
102
RTVSPost2010Prop51ColorRGB
 90
-16777216
102
RTVSPost2010PropOp51
 70
     0
102
RTVSPost2010Prop52
140
1.0
102
RTVSPost2010PropOp52
 70
     0
102
RTVSPost2010Prop53
 90
        2
102
RTVSPost2010PropOp53
 70
     1
102
RTVSPost2010Prop54
  1
strokes_ogs.tif
102
RTVSPost2010PropOp54
 70
     1
102
RTVSPost2010Prop55
280
     0
102
RTVSPost2010PropOp55
 70
     1
102
RTVSPost2010Prop56
140
1.0
102
RTVSPost2010PropOp56
 70
     1
102
RTVSPost2010Prop57
140
1.0
102
RTVSPost2010PropOp57
 70
     1
102
RTVSPropertyOp0
 70
     1
102
RTVSPropertyOp1
 70
     1
102
RTVSPropertyOp2
 70
     1
102
RTVSPropertyOp3
 70
     1
102
RTVSPropertyOp4
 70
     1
102
RTVSPropertyOp5
 70
     1
102
RTVSPropertyOp6
 70
     1
102
RTVSPropertyOp7
 70
     1
102
RTVSPropertyOp8
 70
     1
102
RTVSPropertyOp9
 70
     1
102
RTVSPropertyOp10
 70
     1
102
RTVSPropertyOp11
 70
     1
102
RTVSPropertyOp12
 70
     1
102
RTVSPropertyOp13
 70
     1
102
RTVSPropertyOp14
 70
     1
102
RTVSPropertyOp15
 70
     1
102
RTVSPropertyOp16
 70
     1
102
RTVSPropertyOp17
 70
     1
102
RTVSPropertyOp18
 70
     1
102
RTVSPropertyOp19
 70
     1
102
RTVSPropertyOp20
 70
     1
102
RTVSPropertyOp21
 70
     1
102
RTVSPropertyOp22
 70
     1
102
RTVSPropertyOp23
 70
     1
102
RTVSPropertyOp24
 70
     1
102
RTVSPropertyOp25
 70
     1
102
RTVSPropertyOp26
 70
     1
102
RTVSPropertyOp27
 70
     1
102
RTVSPropertyOp28
 70
     1
102
RTVSPropertyOp29
 70
     1
102
RTVSPropertyOp30
 70
     1
102
RTVSPropertyOp31
 70
     1
102
RTVSPropertyOp32
 70
     1
102
RTVSPropertyOp33
 70
     1
102
RTVSPropertyOp34
 70
     1
102
RTVSPropertyOp35
 70
     1
102
RTVSPropertyOp36
 70
     1
102
RTVSPropertyOp37
 70
     1
102
RTVSPropertyOp38
 70
     1
102
RTVSPropertyOp39
 70
     1
102
RTVSPropertyOp40
 70
     1
102
RTVSPropertyOp41
 70
     1
102
RTVSPropertyOp42
 70
     1
102
RTVSPropertyOp43
 70
     1
102
RTVSPropertyOp44
 70
     1
102
RTVSPropertyOp45
 70
     1
102
RTVSPropertyOp46
 70
     1
102
RTVSPropertyOp47
 70
     1
102
RTVSPropertyOp48
 70
     1
102
RTVSPropertyOp49
 70
     1
102
RTVSPropertyOp50
 70
     1
102
RTVSPropertyOp51
 70
     0
102
RTVSPropertyOp52
 70
     0
102
RTVSPropertyOp53
 70
     1
102
RTVSPropertyOp54
 70
     1
102
RTVSPropertyOp55
 70
     1
102
RTVSPropertyOp56
 70
     1
102
RTVSPropertyOp57
 70
     1
102
RTVSPropertyOp58
 70
     1
102
RTVSPropertyOp59
 70
     1
102
RTVSPropertyOp60
 70
     1
102
RTVSPropertyOp61
 70
     1
102
RTVSPropertyOp62
 70
     1
  0
XRECORD
  5
1437
102
{ACAD_REACTORS
330
1436
102
}
330
1436
100
AcDbXrecord
280
     1
102
RTVSPost2010Prop28
280
     0
102
RTVSPost2010PropOp28
 70
     1
102
RTVSPost2010Prop29
280
     1
102
RTVSPost2010PropOp29
 70
     1
102
RTVSPost2010Prop30
280
     1
102
RTVSPost2010PropOp30
 70
     1
102
RTVSPost2010Prop31
280
     0
102
RTVSPost2010PropOp31
 70
     1
102
RTVSPost2010Prop32
280
     0
102
RTVSPost2010PropOp32
 70
     1
102
RTVSPost2010Prop33
280
     0
102
RTVSPost2010PropOp33
 70
     1
102
RTVSPost2010Prop34
280
     0
102
RTVSPost2010PropOp34
 70
     1
102
RTVSPost2010Prop35
280
     0
102
RTVSPost2010PropOp35
 70
     1
102
RTVSPost2010Prop36
280
     0
102
RTVSPost2010PropOp36
 70
     1
102
RTVSPost2010Prop37
 90
       50
102
RTVSPost2010PropOp37
 70
     1
102
RTVSPost2010Prop38
140
0.0
102
RTVSPost2010PropOp38
 70
     1
102
RTVSPost2010Prop39
140
1.0
102
RTVSPost2010PropOp39
 70
     1
102
RTVSPost2010Prop40
 90
        0
102
RTVSPost2010PropOp40
 70
     1
102
RTVSPost2010Prop41ColorIndex
 90
       18
102
RTVSPost2010Prop41ColorRGB
 90
        0
102
RTVSPost2010PropOp41
 70
     1
102
RTVSPost2010Prop42
 90
       50
102
RTVSPost2010PropOp42
 70
     1
102
RTVSPost2010Prop43
 90
        3
102
RTVSPost2010PropOp43
 70
     1
102
RTVSPost2010Prop44ColorIndex
 90
        5
102
RTVSPost2010Prop44ColorRGB
 90
      255
102
RTVSPost2010PropOp44
 70
     1
102
RTVSPost2010Prop45
280
     0
102
RTVSPost2010PropOp45
 70
     1
102
RTVSPost2010Prop46
 90
       50
102
RTVSPost2010PropOp46
 70
     1
102
RTVSPost2010Prop47
 90
       50
102
RTVSPost2010PropOp47
 70
     1
102
RTVSPost2010Prop48
 90
       50
102
RTVSPost2010PropOp48
 70
     1
102
RTVSPost2010Prop49
280
     0
102
RTVSPost2010PropOp49
 70
     1
102
RTVSPost2010Prop50
 90
       50
102
RTVSPost2010PropOp50
 70
     1
102
RTVSPost2010Prop51ColorIndex
 90
      256
102
RTVSPost2010Prop51ColorRGB
 90
-16777216
102
RTVSPost2010PropOp51
 70
     0
102
RTVSPost2010Prop52
140
1.0
102
RTVSPost2010PropOp52
 70
     0
102
RTVSPost2010Prop53
 90
        2
102
RTVSPost2010PropOp53
 70
     1
102
RTVSPost2010Prop54
  1
strokes_ogs.tif
102
RTVSPost2010PropOp54
 70
     1
102
RTVSPost2010Prop55
280
     0
102
RTVSPost2010PropOp55
 70
     1
102
RTVSPost2010Prop56
140
1.0
102
RTVSPost2010PropOp56
 70
     1
102
RTVSPost2010Prop57
140
1.0
102
RTVSPost2010PropOp57
 70
     1
102
RTVSPropertyOp0
 70
     1
102
RTVSPropertyOp1
 70
     1
102
RTVSPropertyOp2
 70
     1
102
RTVSPropertyOp3
 70
     1
102
RTVSPropertyOp4
 70
     1
102
RTVSPropertyOp5
 70
     1
102
RTVSPropertyOp6
 70
     1
102
RTVSPropertyOp7
 70
     1
102
RTVSPropertyOp8
 70
     1
102
RTVSPropertyOp9
 70
     1
102
RTVSPropertyOp10
 70
     1
102
RTVSPropertyOp11
 70
     1
102
RTVSPropertyOp12
 70
     1
102
RTVSPropertyOp13
 70
     1
102
RTVSPropertyOp14
 70
     1
102
RTVSPropertyOp15
 70
     1
102
RTVSPropertyOp16
 70
     1
102
RTVSPropertyOp17
 70
     1
102
RTVSPropertyOp18
 70
     1
102
RTVSPropertyOp19
 70
     1
102
RTVSPropertyOp20
 70
     1
102
RTVSPropertyOp21
 70
     1
102
RTVSPropertyOp22
 70
     1
102
RTVSPropertyOp23
 70
     1
102
RTVSPropertyOp24
 70
     1
102
RTVSPropertyOp25
 70
     1
102
RTVSPropertyOp26
 70
     1
102
RTVSPropertyOp27
 70
     1
102
RTVSPropertyOp28
 70
     1
102
RTVSPropertyOp29
 70
     1
102
RTVSPropertyOp30
 70
     1
102
RTVSPropertyOp31
 70
     1
102
RTVSPropertyOp32
 70
     1
102
RTVSPropertyOp33
 70
     1
102
RTVSPropertyOp34
 70
     1
102
RTVSPropertyOp35
 70
     1
102
RTVSPropertyOp36
 70
     1
102
RTVSPropertyOp37
 70
     1
102
RTVSPropertyOp38
 70
     1
102
RTVSPropertyOp39
 70
     1
102
RTVSPropertyOp40
 70
     1
102
RTVSPropertyOp41
 70
     1
102
RTVSPropertyOp42
 70
     1
102
RTVSPropertyOp43
 70
     1
102
RTVSPropertyOp44
 70
     1
102
RTVSPropertyOp45
 70
     1
102
RTVSPropertyOp46
 70
     1
102
RTVSPropertyOp47
 70
     1
102
RTVSPropertyOp48
 70
     1
102
RTVSPropertyOp49
 70
     1
102
RTVSPropertyOp50
 70
     1
102
RTVSPropertyOp51
 70
     0
102
RTVSPropertyOp52
 70
     0
102
RTVSPropertyOp53
 70
     1
102
RTVSPropertyOp54
 70
     1
102
RTVSPropertyOp55
 70
     1
102
RTVSPropertyOp56
 70
     1
102
RTVSPropertyOp57
 70
     1
102
RTVSPropertyOp58
 70
     1
102
RTVSPropertyOp59
 70
     1
102
RTVSPropertyOp60
 70
     1
102
RTVSPropertyOp61
 70
     1
102
RTVSPropertyOp62
 70
     1
  0
XRECORD
  5
1429
102
{ACAD_REACTORS
330
1428
102
}
330
1428
100
AcDbXrecord
280
     1
102
RTVSPost2010Prop28
280
     0
102
RTVSPost2010PropOp28
 70
     1
102
RTVSPost2010Prop29
280
     1
102
RTVSPost2010PropOp29
 70
     1
102
RTVSPost2010Prop30
280
     1
102
RTVSPost2010PropOp30
 70
     1
102
RTVSPost2010Prop31
280
     0
102
RTVSPost2010PropOp31
 70
     1
102
RTVSPost2010Prop32
280
     0
102
RTVSPost2010PropOp32
 70
     1
102
RTVSPost2010Prop33
280
     0
102
RTVSPost2010PropOp33
 70
     1
102
RTVSPost2010Prop34
280
     0
102
RTVSPost2010PropOp34
 70
     1
102
RTVSPost2010Prop35
280
     0
102
RTVSPost2010PropOp35
 70
     1
102
RTVSPost2010Prop36
280
     0
102
RTVSPost2010PropOp36
 70
     1
102
RTVSPost2010Prop37
 90
       50
102
RTVSPost2010PropOp37
 70
     1
102
RTVSPost2010Prop38
140
0.0
102
RTVSPost2010PropOp38
 70
     1
102
RTVSPost2010Prop39
140
1.0
102
RTVSPost2010PropOp39
 70
     1
102
RTVSPost2010Prop40
 90
        0
102
RTVSPost2010PropOp40
 70
     1
102
RTVSPost2010Prop41ColorIndex
 90
       18
102
RTVSPost2010Prop41ColorRGB
 90
        0
102
RTVSPost2010PropOp41
 70
     1
102
RTVSPost2010Prop42
 90
       50
102
RTVSPost2010PropOp42
 70
     1
102
RTVSPost2010Prop43
 90
        3
102
RTVSPost2010PropOp43
 70
     1
102
RTVSPost2010Prop44ColorIndex
 90
        5
102
RTVSPost2010Prop44ColorRGB
 90
      255
102
RTVSPost2010PropOp44
 70
     1
102
RTVSPost2010Prop45
280
     0
102
RTVSPost2010PropOp45
 70
     1
102
RTVSPost2010Prop46
 90
       50
102
RTVSPost2010PropOp46
 70
     1
102
RTVSPost2010Prop47
 90
       50
102
RTVSPost2010PropOp47
 70
     1
102
RTVSPost2010Prop48
 90
       50
102
RTVSPost2010PropOp48
 70
     1
102
RTVSPost2010Prop49
280
     0
102
RTVSPost2010PropOp49
 70
     1
102
RTVSPost2010Prop50
 90
       50
102
RTVSPost2010PropOp50
 70
     1
102
RTVSPost2010Prop51ColorIndex
 90
      256
102
RTVSPost2010Prop51ColorRGB
 90
-16777216
102
RTVSPost2010PropOp51
 70
     0
102
RTVSPost2010Prop52
140
1.0
102
RTVSPost2010PropOp52
 70
     0
102
RTVSPost2010Prop53
 90
        2
102
RTVSPost2010PropOp53
 70
     1
102
RTVSPost2010Prop54
  1
strokes_ogs.tif
102
RTVSPost2010PropOp54
 70
     1
102
RTVSPost2010Prop55
280
     0
102
RTVSPost2010PropOp55
 70
     1
102
RTVSPost2010Prop56
140
1.0
102
RTVSPost2010PropOp56
 70
     1
102
RTVSPost2010Prop57
140
1.0
102
RTVSPost2010PropOp57
 70
     1
102
RTVSPropertyOp0
 70
     1
102
RTVSPropertyOp1
 70
     1
102
RTVSPropertyOp2
 70
     1
102
RTVSPropertyOp3
 70
     1
102
RTVSPropertyOp4
 70
     1
102
RTVSPropertyOp5
 70
     1
102
RTVSPropertyOp6
 70
     1
102
RTVSPropertyOp7
 70
     1
102
RTVSPropertyOp8
 70
     1
102
RTVSPropertyOp9
 70
     1
102
RTVSPropertyOp10
 70
     1
102
RTVSPropertyOp11
 70
     1
102
RTVSPropertyOp12
 70
     1
102
RTVSPropertyOp13
 70
     1
102
RTVSPropertyOp14
 70
     1
102
RTVSPropertyOp15
 70
     1
102
RTVSPropertyOp16
 70
     1
102
RTVSPropertyOp17
 70
     1
102
RTVSPropertyOp18
 70
     1
102
RTVSPropertyOp19
 70
     1
102
RTVSPropertyOp20
 70
     1
102
RTVSPropertyOp21
 70
     1
102
RTVSPropertyOp22
 70
     1
102
RTVSPropertyOp23
 70
     1
102
RTVSPropertyOp24
 70
     1
102
RTVSPropertyOp25
 70
     1
102
RTVSPropertyOp26
 70
     1
102
RTVSPropertyOp27
 70
     1
102
RTVSPropertyOp28
 70
     1
102
RTVSPropertyOp29
 70
     1
102
RTVSPropertyOp30
 70
     1
102
RTVSPropertyOp31
 70
     1
102
RTVSPropertyOp32
 70
     1
102
RTVSPropertyOp33
 70
     1
102
RTVSPropertyOp34
 70
     1
102
RTVSPropertyOp35
 70
     1
102
RTVSPropertyOp36
 70
     1
102
RTVSPropertyOp37
 70
     1
102
RTVSPropertyOp38
 70
     1
102
RTVSPropertyOp39
 70
     1
102
RTVSPropertyOp40
 70
     1
102
RTVSPropertyOp41
 70
     1
102
RTVSPropertyOp42
 70
     1
102
RTVSPropertyOp43
 70
     1
102
RTVSPropertyOp44
 70
     1
102
RTVSPropertyOp45
 70
     1
102
RTVSPropertyOp46
 70
     1
102
RTVSPropertyOp47
 70
     1
102
RTVSPropertyOp48
 70
     1
102
RTVSPropertyOp49
 70
     1
102
RTVSPropertyOp50
 70
     1
102
RTVSPropertyOp51
 70
     0
102
RTVSPropertyOp52
 70
     0
102
RTVSPropertyOp53
 70
     1
102
RTVSPropertyOp54
 70
     1
102
RTVSPropertyOp55
 70
     1
102
RTVSPropertyOp56
 70
     1
102
RTVSPropertyOp57
 70
     1
102
RTVSPropertyOp58
 70
     1
102
RTVSPropertyOp59
 70
     1
102
RTVSPropertyOp60
 70
     1
102
RTVSPropertyOp61
 70
     1
102
RTVSPropertyOp62
 70
     1
  0
XRECORD
  5
142D
102
{ACAD_REACTORS
330
142C
102
}
330
142C
100
AcDbXrecord
280
     1
102
RTVSPost2010Prop28
280
     0
102
RTVSPost2010PropOp28
 70
     1
102
RTVSPost2010Prop29
280
     1
102
RTVSPost2010PropOp29
 70
     1
102
RTVSPost2010Prop30
280
     1
102
RTVSPost2010PropOp30
 70
     1
102
RTVSPost2010Prop31
280
     0
102
RTVSPost2010PropOp31
 70
     1
102
RTVSPost2010Prop32
280
     0
102
RTVSPost2010PropOp32
 70
     1
102
RTVSPost2010Prop33
280
     0
102
RTVSPost2010PropOp33
 70
     1
102
RTVSPost2010Prop34
280
     0
102
RTVSPost2010PropOp34
 70
     1
102
RTVSPost2010Prop35
280
     0
102
RTVSPost2010PropOp35
 70
     1
102
RTVSPost2010Prop36
280
     0
102
RTVSPost2010PropOp36
 70
     1
102
RTVSPost2010Prop37
 90
       50
102
RTVSPost2010PropOp37
 70
     1
102
RTVSPost2010Prop38
140
0.0
102
RTVSPost2010PropOp38
 70
     1
102
RTVSPost2010Prop39
140
1.0
102
RTVSPost2010PropOp39
 70
     1
102
RTVSPost2010Prop40
 90
        0
102
RTVSPost2010PropOp40
 70
     1
102
RTVSPost2010Prop41ColorIndex
 90
       18
102
RTVSPost2010Prop41ColorRGB
 90
        0
102
RTVSPost2010PropOp41
 70
     1
102
RTVSPost2010Prop42
 90
       50
102
RTVSPost2010PropOp42
 70
     1
102
RTVSPost2010Prop43
 90
        3
102
RTVSPost2010PropOp43
 70
     1
102
RTVSPost2010Prop44ColorIndex
 90
        5
102
RTVSPost2010Prop44ColorRGB
 90
      255
102
RTVSPost2010PropOp44
 70
     1
102
RTVSPost2010Prop45
280
     0
102
RTVSPost2010PropOp45
 70
     1
102
RTVSPost2010Prop46
 90
       50
102
RTVSPost2010PropOp46
 70
     1
102
RTVSPost2010Prop47
 90
       50
102
RTVSPost2010PropOp47
 70
     1
102
RTVSPost2010Prop48
 90
       50
102
RTVSPost2010PropOp48
 70
     1
102
RTVSPost2010Prop49
280
     0
102
RTVSPost2010PropOp49
 70
     1
102
RTVSPost2010Prop50
 90
       50
102
RTVSPost2010PropOp50
 70
     1
102
RTVSPost2010Prop51ColorIndex
 90
      256
102
RTVSPost2010Prop51ColorRGB
 90
-16777216
102
RTVSPost2010PropOp51
 70
     0
102
RTVSPost2010Prop52
140
1.0
102
RTVSPost2010PropOp52
 70
     0
102
RTVSPost2010Prop53
 90
        2
102
RTVSPost2010PropOp53
 70
     1
102
RTVSPost2010Prop54
  1
strokes_ogs.tif
102
RTVSPost2010PropOp54
 70
     1
102
RTVSPost2010Prop55
280
     0
102
RTVSPost2010PropOp55
 70
     1
102
RTVSPost2010Prop56
140
1.0
102
RTVSPost2010PropOp56
 70
     1
102
RTVSPost2010Prop57
140
1.0
102
RTVSPost2010PropOp57
 70
     1
102
RTVSPropertyOp0
 70
     1
102
RTVSPropertyOp1
 70
     1
102
RTVSPropertyOp2
 70
     1
102
RTVSPropertyOp3
 70
     1
102
RTVSPropertyOp4
 70
     1
102
RTVSPropertyOp5
 70
     1
102
RTVSPropertyOp6
 70
     1
102
RTVSPropertyOp7
 70
     1
102
RTVSPropertyOp8
 70
     1
102
RTVSPropertyOp9
 70
     1
102
RTVSPropertyOp10
 70
     1
102
RTVSPropertyOp11
 70
     1
102
RTVSPropertyOp12
 70
     1
102
RTVSPropertyOp13
 70
     1
102
RTVSPropertyOp14
 70
     1
102
RTVSPropertyOp15
 70
     1
102
RTVSPropertyOp16
 70
     1
102
RTVSPropertyOp17
 70
     1
102
RTVSPropertyOp18
 70
     1
102
RTVSPropertyOp19
 70
     1
102
RTVSPropertyOp20
 70
     1
102
RTVSPropertyOp21
 70
     1
102
RTVSPropertyOp22
 70
     1
102
RTVSPropertyOp23
 70
     1
102
RTVSPropertyOp24
 70
     1
102
RTVSPropertyOp25
 70
     1
102
RTVSPropertyOp26
 70
     1
102
RTVSPropertyOp27
 70
     1
102
RTVSPropertyOp28
 70
     1
102
RTVSPropertyOp29
 70
     1
102
RTVSPropertyOp30
 70
     1
102
RTVSPropertyOp31
 70
     1
102
RTVSPropertyOp32
 70
     1
102
RTVSPropertyOp33
 70
     1
102
RTVSPropertyOp34
 70
     1
102
RTVSPropertyOp35
 70
     1
102
RTVSPropertyOp36
 70
     1
102
RTVSPropertyOp37
 70
     1
102
RTVSPropertyOp38
 70
     1
102
RTVSPropertyOp39
 70
     1
102
RTVSPropertyOp40
 70
     1
102
RTVSPropertyOp41
 70
     1
102
RTVSPropertyOp42
 70
     1
102
RTVSPropertyOp43
 70
     1
102
RTVSPropertyOp44
 70
     1
102
RTVSPropertyOp45
 70
     1
102
RTVSPropertyOp46
 70
     1
102
RTVSPropertyOp47
 70
     1
102
RTVSPropertyOp48
 70
     1
102
RTVSPropertyOp49
 70
     1
102
RTVSPropertyOp50
 70
     1
102
RTVSPropertyOp51
 70
     0
102
RTVSPropertyOp52
 70
     0
102
RTVSPropertyOp53
 70
     1
102
RTVSPropertyOp54
 70
     1
102
RTVSPropertyOp55
 70
     1
102
RTVSPropertyOp56
 70
     1
102
RTVSPropertyOp57
 70
     1
102
RTVSPropertyOp58
 70
     1
102
RTVSPropertyOp59
 70
     1
102
RTVSPropertyOp60
 70
     1
102
RTVSPropertyOp61
 70
     1
102
RTVSPropertyOp62
 70
     1
  0
XRECORD
  5
143D
102
{ACAD_REACTORS
330
143C
102
}
330
143C
100
AcDbXrecord
280
     1
102
RTVSPost2010Prop28
280
     0
102
RTVSPost2010PropOp28
 70
     1
102
RTVSPost2010Prop29
280
     1
102
RTVSPost2010PropOp29
 70
     1
102
RTVSPost2010Prop30
280
     1
102
RTVSPost2010PropOp30
 70
     1
102
RTVSPost2010Prop31
280
     0
102
RTVSPost2010PropOp31
 70
     1
102
RTVSPost2010Prop32
280
     0
102
RTVSPost2010PropOp32
 70
     1
102
RTVSPost2010Prop33
280
     0
102
RTVSPost2010PropOp33
 70
     1
102
RTVSPost2010Prop34
280
     0
102
RTVSPost2010PropOp34
 70
     1
102
RTVSPost2010Prop35
280
     0
102
RTVSPost2010PropOp35
 70
     1
102
RTVSPost2010Prop36
280
     0
102
RTVSPost2010PropOp36
 70
     1
102
RTVSPost2010Prop37
 90
       50
102
RTVSPost2010PropOp37
 70
     1
102
RTVSPost2010Prop38
140
0.0
102
RTVSPost2010PropOp38
 70
     1
102
RTVSPost2010Prop39
140
1.0
102
RTVSPost2010PropOp39
 70
     1
102
RTVSPost2010Prop40
 90
        0
102
RTVSPost2010PropOp40
 70
     1
102
RTVSPost2010Prop41ColorIndex
 90
       18
102
RTVSPost2010Prop41ColorRGB
 90
        0
102
RTVSPost2010PropOp41
 70
     1
102
RTVSPost2010Prop42
 90
       50
102
RTVSPost2010PropOp42
 70
     1
102
RTVSPost2010Prop43
 90
        3
102
RTVSPost2010PropOp43
 70
     1
102
RTVSPost2010Prop44ColorIndex
 90
        5
102
RTVSPost2010Prop44ColorRGB
 90
      255
102
RTVSPost2010PropOp44
 70
     1
102
RTVSPost2010Prop45
280
     0
102
RTVSPost2010PropOp45
 70
     1
102
RTVSPost2010Prop46
 90
       50
102
RTVSPost2010PropOp46
 70
     1
102
RTVSPost2010Prop47
 90
       50
102
RTVSPost2010PropOp47
 70
     1
102
RTVSPost2010Prop48
 90
       50
102
RTVSPost2010PropOp48
 70
     1
102
RTVSPost2010Prop49
280
     0
102
RTVSPost2010PropOp49
 70
     1
102
RTVSPost2010Prop50
 90
       50
102
RTVSPost2010PropOp50
 70
     1
102
RTVSPost2010Prop51ColorIndex
 90
      256
102
RTVSPost2010Prop51ColorRGB
 90
-16777216
102
RTVSPost2010PropOp51
 70
     0
102
RTVSPost2010Prop52
140
1.0
102
RTVSPost2010PropOp52
 70
     0
102
RTVSPost2010Prop53
 90
        2
102
RTVSPost2010PropOp53
 70
     1
102
RTVSPost2010Prop54
  1
strokes_ogs.tif
102
RTVSPost2010PropOp54
 70
     1
102
RTVSPost2010Prop55
280
     0
102
RTVSPost2010PropOp55
 70
     1
102
RTVSPost2010Prop56
140
1.0
102
RTVSPost2010PropOp56
 70
     1
102
RTVSPost2010Prop57
140
1.0
102
RTVSPost2010PropOp57
 70
     1
102
RTVSPropertyOp0
 70
     0
102
RTVSPropertyOp1
 70
     0
102
RTVSPropertyOp2
 70
     0
102
RTVSPropertyOp3
 70
     0
102
RTVSPropertyOp4
 70
     0
102
RTVSPropertyOp5
 70
     0
102
RTVSPropertyOp6
 70
     0
102
RTVSPropertyOp7
 70
     0
102
RTVSPropertyOp8
 70
     0
102
RTVSPropertyOp9
 70
     0
102
RTVSPropertyOp10
 70
     0
102
RTVSPropertyOp11
 70
     0
102
RTVSPropertyOp12
 70
     0
102
RTVSPropertyOp13
 70
     0
102
RTVSPropertyOp14
 70
     2
102
RTVSPropertyOp15
 70
     0
102
RTVSPropertyOp16
 70
     0
102
RTVSPropertyOp17
 70
     0
102
RTVSPropertyOp18
 70
     0
102
RTVSPropertyOp19
 70
     0
102
RTVSPropertyOp20
 70
     0
102
RTVSPropertyOp21
 70
     0
102
RTVSPropertyOp22
 70
     0
102
RTVSPropertyOp23
 70
     0
102
RTVSPropertyOp24
 70
     0
102
RTVSPropertyOp25
 70
     0
102
RTVSPropertyOp26
 70
     0
102
RTVSPropertyOp27
 70
     0
102
RTVSPropertyOp28
 70
     1
102
RTVSPropertyOp29
 70
     1
102
RTVSPropertyOp30
 70
     1
102
RTVSPropertyOp31
 70
     1
102
RTVSPropertyOp32
 70
     1
102
RTVSPropertyOp33
 70
     1
102
RTVSPropertyOp34
 70
     1
102
RTVSPropertyOp35
 70
     1
102
RTVSPropertyOp36
 70
     1
102
RTVSPropertyOp37
 70
     1
102
RTVSPropertyOp38
 70
     1
102
RTVSPropertyOp39
 70
     1
102
RTVSPropertyOp40
 70
     1
102
RTVSPropertyOp41
 70
     1
102
RTVSPropertyOp42
 70
     1
102
RTVSPropertyOp43
 70
     1
102
RTVSPropertyOp44
 70
     1
102
RTVSPropertyOp45
 70
     1
102
RTVSPropertyOp46
 70
     1
102
RTVSPropertyOp47
 70
     1
102
RTVSPropertyOp48
 70
     1
102
RTVSPropertyOp49
 70
     1
102
RTVSPropertyOp50
 70
     1
102
RTVSPropertyOp51
 70
     0
102
RTVSPropertyOp52
 70
     0
102
RTVSPropertyOp53
 70
     1
102
RTVSPropertyOp54
 70
     1
102
RTVSPropertyOp55
 70
     1
102
RTVSPropertyOp56
 70
     1
102
RTVSPropertyOp57
 70
     1
102
RTVSPropertyOp58
 70
     1
102
RTVSPropertyOp59
 70
     1
102
RTVSPropertyOp60
 70
     1
102
RTVSPropertyOp61
 70
     1
102
RTVSPropertyOp62
 70
     1
  0
XRECORD
  5
1435
102
{ACAD_REACTORS
330
1434
102
}
330
1434
100
AcDbXrecord
280
     1
102
RTVSPost2010Prop28
280
     0
102
RTVSPost2010PropOp28
 70
     1
102
RTVSPost2010Prop29
280
     1
102
RTVSPost2010PropOp29
 70
     1
102
RTVSPost2010Prop30
280
     1
102
RTVSPost2010PropOp30
 70
     1
102
RTVSPost2010Prop31
280
     0
102
RTVSPost2010PropOp31
 70
     1
102
RTVSPost2010Prop32
280
     0
102
RTVSPost2010PropOp32
 70
     1
102
RTVSPost2010Prop33
280
     0
102
RTVSPost2010PropOp33
 70
     1
102
RTVSPost2010Prop34
280
     0
102
RTVSPost2010PropOp34
 70
     1
102
RTVSPost2010Prop35
280
     0
102
RTVSPost2010PropOp35
 70
     1
102
RTVSPost2010Prop36
280
     0
102
RTVSPost2010PropOp36
 70
     1
102
RTVSPost2010Prop37
 90
       50
102
RTVSPost2010PropOp37
 70
     1
102
RTVSPost2010Prop38
140
0.0
102
RTVSPost2010PropOp38
 70
     1
102
RTVSPost2010Prop39
140
1.0
102
RTVSPost2010PropOp39
 70
     1
102
RTVSPost2010Prop40
 90
        0
102
RTVSPost2010PropOp40
 70
     1
102
RTVSPost2010Prop41ColorIndex
 90
       18
102
RTVSPost2010Prop41ColorRGB
 90
        0
102
RTVSPost2010PropOp41
 70
     1
102
RTVSPost2010Prop42
 90
       50
102
RTVSPost2010PropOp42
 70
     1
102
RTVSPost2010Prop43
 90
        3
102
RTVSPost2010PropOp43
 70
     1
102
RTVSPost2010Prop44ColorIndex
 90
        5
102
RTVSPost2010Prop44ColorRGB
 90
      255
102
RTVSPost2010PropOp44
 70
     1
102
RTVSPost2010Prop45
280
     0
102
RTVSPost2010PropOp45
 70
     1
102
RTVSPost2010Prop46
 90
       50
102
RTVSPost2010PropOp46
 70
     1
102
RTVSPost2010Prop47
 90
       50
102
RTVSPost2010PropOp47
 70
     1
102
RTVSPost2010Prop48
 90
       50
102
RTVSPost2010PropOp48
 70
     1
102
RTVSPost2010Prop49
280
     0
102
RTVSPost2010PropOp49
 70
     1
102
RTVSPost2010Prop50
 90
       50
102
RTVSPost2010PropOp50
 70
     1
102
RTVSPost2010Prop51ColorIndex
 90
      256
102
RTVSPost2010Prop51ColorRGB
 90
-16777216
102
RTVSPost2010PropOp51
 70
     0
102
RTVSPost2010Prop52
140
1.0
102
RTVSPost2010PropOp52
 70
     0
102
RTVSPost2010Prop53
 90
        2
102
RTVSPost2010PropOp53
 70
     1
102
RTVSPost2010Prop54
  1
strokes_ogs.tif
102
RTVSPost2010PropOp54
 70
     1
102
RTVSPost2010Prop55
280
     0
102
RTVSPost2010PropOp55
 70
     1
102
RTVSPost2010Prop56
140
1.0
102
RTVSPost2010PropOp56
 70
     1
102
RTVSPost2010Prop57
140
1.0
102
RTVSPost2010PropOp57
 70
     1
102
RTVSPropertyOp0
 70
     1
102
RTVSPropertyOp1
 70
     1
102
RTVSPropertyOp2
 70
     1
102
RTVSPropertyOp3
 70
     1
102
RTVSPropertyOp4
 70
     1
102
RTVSPropertyOp5
 70
     1
102
RTVSPropertyOp6
 70
     1
102
RTVSPropertyOp7
 70
     1
102
RTVSPropertyOp8
 70
     1
102
RTVSPropertyOp9
 70
     1
102
RTVSPropertyOp10
 70
     1
102
RTVSPropertyOp11
 70
     1
102
RTVSPropertyOp12
 70
     1
102
RTVSPropertyOp13
 70
     1
102
RTVSPropertyOp14
 70
     1
102
RTVSPropertyOp15
 70
     1
102
RTVSPropertyOp16
 70
     1
102
RTVSPropertyOp17
 70
     1
102
RTVSPropertyOp18
 70
     1
102
RTVSPropertyOp19
 70
     1
102
RTVSPropertyOp20
 70
     1
102
RTVSPropertyOp21
 70
     1
102
RTVSPropertyOp22
 70
     1
102
RTVSPropertyOp23
 70
     1
102
RTVSPropertyOp24
 70
     1
102
RTVSPropertyOp25
 70
     1
102
RTVSPropertyOp26
 70
     1
102
RTVSPropertyOp27
 70
     1
102
RTVSPropertyOp28
 70
     1
102
RTVSPropertyOp29
 70
     1
102
RTVSPropertyOp30
 70
     1
102
RTVSPropertyOp31
 70
     1
102
RTVSPropertyOp32
 70
     1
102
RTVSPropertyOp33
 70
     1
102
RTVSPropertyOp34
 70
     1
102
RTVSPropertyOp35
 70
     1
102
RTVSPropertyOp36
 70
     1
102
RTVSPropertyOp37
 70
     1
102
RTVSPropertyOp38
 70
     1
102
RTVSPropertyOp39
 70
     1
102
RTVSPropertyOp40
 70
     1
102
RTVSPropertyOp41
 70
     1
102
RTVSPropertyOp42
 70
     1
102
RTVSPropertyOp43
 70
     1
102
RTVSPropertyOp44
 70
     1
102
RTVSPropertyOp45
 70
     1
102
RTVSPropertyOp46
 70
     1
102
RTVSPropertyOp47
 70
     1
102
RTVSPropertyOp48
 70
     1
102
RTVSPropertyOp49
 70
     1
102
RTVSPropertyOp50
 70
     1
102
RTVSPropertyOp51
 70
     0
102
RTVSPropertyOp52
 70
     0
102
RTVSPropertyOp53
 70
     1
102
RTVSPropertyOp54
 70
     1
102
RTVSPropertyOp55
 70
     1
102
RTVSPropertyOp56
 70
     1
102
RTVSPropertyOp57
 70
     1
102
RTVSPropertyOp58
 70
     1
102
RTVSPropertyOp59
 70
     1
102
RTVSPropertyOp60
 70
     1
102
RTVSPropertyOp61
 70
     1
102
RTVSPropertyOp62
 70
     1
  0
XRECORD
  5
1419
102
{ACAD_REACTORS
330
1418
102
}
330
1418
100
AcDbXrecord
280
     1
102
RTVSPost2010Prop28
280
     0
102
RTVSPost2010PropOp28
 70
     1
102
RTVSPost2010Prop29
280
     1
102
RTVSPost2010PropOp29
 70
     1
102
RTVSPost2010Prop30
280
     1
102
RTVSPost2010PropOp30
 70
     1
102
RTVSPost2010Prop31
280
     0
102
RTVSPost2010PropOp31
 70
     1
102
RTVSPost2010Prop32
280
     0
102
RTVSPost2010PropOp32
 70
     1
102
RTVSPost2010Prop33
280
     0
102
RTVSPost2010PropOp33
 70
     1
102
RTVSPost2010Prop34
280
     0
102
RTVSPost2010PropOp34
 70
     1
102
RTVSPost2010Prop35
280
     0
102
RTVSPost2010PropOp35
 70
     1
102
RTVSPost2010Prop36
280
     0
102
RTVSPost2010PropOp36
 70
     1
102
RTVSPost2010Prop37
 90
       50
102
RTVSPost2010PropOp37
 70
     1
102
RTVSPost2010Prop38
140
0.0
102
RTVSPost2010PropOp38
 70
     1
102
RTVSPost2010Prop39
140
1.0
102
RTVSPost2010PropOp39
 70
     1
102
RTVSPost2010Prop40
 90
        0
102
RTVSPost2010PropOp40
 70
     1
102
RTVSPost2010Prop41ColorIndex
 90
       18
102
RTVSPost2010Prop41ColorRGB
 90
        0
102
RTVSPost2010PropOp41
 70
     1
102
RTVSPost2010Prop42
 90
       50
102
RTVSPost2010PropOp42
 70
     1
102
RTVSPost2010Prop43
 90
        3
102
RTVSPost2010PropOp43
 70
     1
102
RTVSPost2010Prop44ColorIndex
 90
        5
102
RTVSPost2010Prop44ColorRGB
 90
      255
102
RTVSPost2010PropOp44
 70
     1
102
RTVSPost2010Prop45
280
     0
102
RTVSPost2010PropOp45
 70
     1
102
RTVSPost2010Prop46
 90
       50
102
RTVSPost2010PropOp46
 70
     1
102
RTVSPost2010Prop47
 90
       50
102
RTVSPost2010PropOp47
 70
     1
102
RTVSPost2010Prop48
 90
       50
102
RTVSPost2010PropOp48
 70
     1
102
RTVSPost2010Prop49
280
     0
102
RTVSPost2010PropOp49
 70
     1
102
RTVSPost2010Prop50
 90
       50
102
RTVSPost2010PropOp50
 70
     1
102
RTVSPost2010Prop51ColorIndex
 90
      256
102
RTVSPost2010Prop51ColorRGB
 90
-16777216
102
RTVSPost2010PropOp51
 70
     0
102
RTVSPost2010Prop52
140
1.0
102
RTVSPost2010PropOp52
 70
     0
102
RTVSPost2010Prop53
 90
        2
102
RTVSPost2010PropOp53
 70
     1
102
RTVSPost2010Prop54
  1
strokes_ogs.tif
102
RTVSPost2010PropOp54
 70
     1
102
RTVSPost2010Prop55
280
     0
102
RTVSPost2010PropOp55
 70
     1
102
RTVSPost2010Prop56
140
1.0
102
RTVSPost2010PropOp56
 70
     1
102
RTVSPost2010Prop57
140
1.0
102
RTVSPost2010PropOp57
 70
     1
102
RTVSPropertyOp0
 70
     1
102
RTVSPropertyOp1
 70
     1
102
RTVSPropertyOp2
 70
     1
102
RTVSPropertyOp3
 70
     1
102
RTVSPropertyOp4
 70
     1
102
RTVSPropertyOp5
 70
     1
102
RTVSPropertyOp6
 70
     1
102
RTVSPropertyOp7
 70
     1
102
RTVSPropertyOp8
 70
     1
102
RTVSPropertyOp9
 70
     1
102
RTVSPropertyOp10
 70
     1
102
RTVSPropertyOp11
 70
     1
102
RTVSPropertyOp12
 70
     1
102
RTVSPropertyOp13
 70
     1
102
RTVSPropertyOp14
 70
     1
102
RTVSPropertyOp15
 70
     1
102
RTVSPropertyOp16
 70
     1
102
RTVSPropertyOp17
 70
     1
102
RTVSPropertyOp18
 70
     1
102
RTVSPropertyOp19
 70
     1
102
RTVSPropertyOp20
 70
     1
102
RTVSPropertyOp21
 70
     1
102
RTVSPropertyOp22
 70
     1
102
RTVSPropertyOp23
 70
     1
102
RTVSPropertyOp24
 70
     1
102
RTVSPropertyOp25
 70
     1
102
RTVSPropertyOp26
 70
     1
102
RTVSPropertyOp27
 70
     1
102
RTVSPropertyOp28
 70
     1
102
RTVSPropertyOp29
 70
     1
102
RTVSPropertyOp30
 70
     1
102
RTVSPropertyOp31
 70
     1
102
RTVSPropertyOp32
 70
     1
102
RTVSPropertyOp33
 70
     1
102
RTVSPropertyOp34
 70
     1
102
RTVSPropertyOp35
 70
     1
102
RTVSPropertyOp36
 70
     1
102
RTVSPropertyOp37
 70
     1
102
RTVSPropertyOp38
 70
     1
102
RTVSPropertyOp39
 70
     1
102
RTVSPropertyOp40
 70
     1
102
RTVSPropertyOp41
 70
     1
102
RTVSPropertyOp42
 70
     1
102
RTVSPropertyOp43
 70
     1
102
RTVSPropertyOp44
 70
     1
102
RTVSPropertyOp45
 70
     1
102
RTVSPropertyOp46
 70
     1
102
RTVSPropertyOp47
 70
     1
102
RTVSPropertyOp48
 70
     1
102
RTVSPropertyOp49
 70
     1
102
RTVSPropertyOp50
 70
     1
102
RTVSPropertyOp51
 70
     0
102
RTVSPropertyOp52
 70
     0
102
RTVSPropertyOp53
 70
     1
102
RTVSPropertyOp54
 70
     1
102
RTVSPropertyOp55
 70
     1
102
RTVSPropertyOp56
 70
     1
102
RTVSPropertyOp57
 70
     1
102
RTVSPropertyOp58
 70
     1
102
RTVSPropertyOp59
 70
     1
102
RTVSPropertyOp60
 70
     1
102
RTVSPropertyOp61
 70
     1
102
RTVSPropertyOp62
 70
     1
  0
XRECORD
  5
141B
102
{ACAD_REACTORS
330
141A
102
}
330
141A
100
AcDbXrecord
280
     1
102
RTVSPost2010Prop28
280
     0
102
RTVSPost2010PropOp28
 70
     1
102
RTVSPost2010Prop29
280
     1
102
RTVSPost2010PropOp29
 70
     1
102
RTVSPost2010Prop30
280
     1
102
RTVSPost2010PropOp30
 70
     1
102
RTVSPost2010Prop31
280
     0
102
RTVSPost2010PropOp31
 70
     1
102
RTVSPost2010Prop32
280
     0
102
RTVSPost2010PropOp32
 70
     1
102
RTVSPost2010Prop33
280
     0
102
RTVSPost2010PropOp33
 70
     1
102
RTVSPost2010Prop34
280
     0
102
RTVSPost2010PropOp34
 70
     1
102
RTVSPost2010Prop35
280
     0
102
RTVSPost2010PropOp35
 70
     1
102
RTVSPost2010Prop36
280
     0
102
RTVSPost2010PropOp36
 70
     1
102
RTVSPost2010Prop37
 90
       50
102
RTVSPost2010PropOp37
 70
     1
102
RTVSPost2010Prop38
140
0.0
102
RTVSPost2010PropOp38
 70
     1
102
RTVSPost2010Prop39
140
1.0
102
RTVSPost2010PropOp39
 70
     1
102
RTVSPost2010Prop40
 90
        0
102
RTVSPost2010PropOp40
 70
     1
102
RTVSPost2010Prop41ColorIndex
 90
       18
102
RTVSPost2010Prop41ColorRGB
 90
        0
102
RTVSPost2010PropOp41
 70
     1
102
RTVSPost2010Prop42
 90
       50
102
RTVSPost2010PropOp42
 70
     1
102
RTVSPost2010Prop43
 90
        3
102
RTVSPost2010PropOp43
 70
     1
102
RTVSPost2010Prop44ColorIndex
 90
        5
102
RTVSPost2010Prop44ColorRGB
 90
      255
102
RTVSPost2010PropOp44
 70
     1
102
RTVSPost2010Prop45
280
     0
102
RTVSPost2010PropOp45
 70
     1
102
RTVSPost2010Prop46
 90
       50
102
RTVSPost2010PropOp46
 70
     1
102
RTVSPost2010Prop47
 90
       50
102
RTVSPost2010PropOp47
 70
     1
102
RTVSPost2010Prop48
 90
       50
102
RTVSPost2010PropOp48
 70
     1
102
RTVSPost2010Prop49
280
     0
102
RTVSPost2010PropOp49
 70
     1
102
RTVSPost2010Prop50
 90
       50
102
RTVSPost2010PropOp50
 70
     1
102
RTVSPost2010Prop51ColorIndex
 90
      256
102
RTVSPost2010Prop51ColorRGB
 90
-16777216
102
RTVSPost2010PropOp51
 70
     0
102
RTVSPost2010Prop52
140
1.0
102
RTVSPost2010PropOp52
 70
     0
102
RTVSPost2010Prop53
 90
        2
102
RTVSPost2010PropOp53
 70
     1
102
RTVSPost2010Prop54
  1
strokes_ogs.tif
102
RTVSPost2010PropOp54
 70
     1
102
RTVSPost2010Prop55
280
     0
102
RTVSPost2010PropOp55
 70
     1
102
RTVSPost2010Prop56
140
1.0
102
RTVSPost2010PropOp56
 70
     1
102
RTVSPost2010Prop57
140
1.0
102
RTVSPost2010PropOp57
 70
     1
102
RTVSPropertyOp0
 70
     1
102
RTVSPropertyOp1
 70
     1
102
RTVSPropertyOp2
 70
     1
102
RTVSPropertyOp3
 70
     1
102
RTVSPropertyOp4
 70
     1
102
RTVSPropertyOp5
 70
     1
102
RTVSPropertyOp6
 70
     1
102
RTVSPropertyOp7
 70
     1
102
RTVSPropertyOp8
 70
     1
102
RTVSPropertyOp9
 70
     1
102
RTVSPropertyOp10
 70
     1
102
RTVSPropertyOp11
 70
     1
102
RTVSPropertyOp12
 70
     1
102
RTVSPropertyOp13
 70
     1
102
RTVSPropertyOp14
 70
     1
102
RTVSPropertyOp15
 70
     1
102
RTVSPropertyOp16
 70
     1
102
RTVSPropertyOp17
 70
     1
102
RTVSPropertyOp18
 70
     1
102
RTVSPropertyOp19
 70
     1
102
RTVSPropertyOp20
 70
     1
102
RTVSPropertyOp21
 70
     1
102
RTVSPropertyOp22
 70
     1
102
RTVSPropertyOp23
 70
     1
102
RTVSPropertyOp24
 70
     1
102
RTVSPropertyOp25
 70
     1
102
RTVSPropertyOp26
 70
     1
102
RTVSPropertyOp27
 70
     1
102
RTVSPropertyOp28
 70
     1
102
RTVSPropertyOp29
 70
     1
102
RTVSPropertyOp30
 70
     1
102
RTVSPropertyOp31
 70
     1
102
RTVSPropertyOp32
 70
     1
102
RTVSPropertyOp33
 70
     1
102
RTVSPropertyOp34
 70
     1
102
RTVSPropertyOp35
 70
     1
102
RTVSPropertyOp36
 70
     1
102
RTVSPropertyOp37
 70
     1
102
RTVSPropertyOp38
 70
     1
102
RTVSPropertyOp39
 70
     1
102
RTVSPropertyOp40
 70
     1
102
RTVSPropertyOp41
 70
     1
102
RTVSPropertyOp42
 70
     1
102
RTVSPropertyOp43
 70
     1
102
RTVSPropertyOp44
 70
     1
102
RTVSPropertyOp45
 70
     1
102
RTVSPropertyOp46
 70
     1
102
RTVSPropertyOp47
 70
     1
102
RTVSPropertyOp48
 70
     1
102
RTVSPropertyOp49
 70
     1
102
RTVSPropertyOp50
 70
     1
102
RTVSPropertyOp51
 70
     0
102
RTVSPropertyOp52
 70
     0
102
RTVSPropertyOp53
 70
     1
102
RTVSPropertyOp54
 70
     1
102
RTVSPropertyOp55
 70
     1
102
RTVSPropertyOp56
 70
     1
102
RTVSPropertyOp57
 70
     1
102
RTVSPropertyOp58
 70
     1
102
RTVSPropertyOp59
 70
     1
102
RTVSPropertyOp60
 70
     1
102
RTVSPropertyOp61
 70
     1
102
RTVSPropertyOp62
 70
     1
  0
XRECORD
  5
141D
102
{ACAD_REACTORS
330
141C
102
}
330
141C
100
AcDbXrecord
280
     1
102
RTVSPost2010Prop28
280
     0
102
RTVSPost2010PropOp28
 70
     1
102
RTVSPost2010Prop29
280
     1
102
RTVSPost2010PropOp29
 70
     1
102
RTVSPost2010Prop30
280
     1
102
RTVSPost2010PropOp30
 70
     1
102
RTVSPost2010Prop31
280
     0
102
RTVSPost2010PropOp31
 70
     1
102
RTVSPost2010Prop32
280
     0
102
RTVSPost2010PropOp32
 70
     1
102
RTVSPost2010Prop33
280
     0
102
RTVSPost2010PropOp33
 70
     1
102
RTVSPost2010Prop34
280
     0
102
RTVSPost2010PropOp34
 70
     1
102
RTVSPost2010Prop35
280
     0
102
RTVSPost2010PropOp35
 70
     1
102
RTVSPost2010Prop36
280
     0
102
RTVSPost2010PropOp36
 70
     1
102
RTVSPost2010Prop37
 90
       50
102
RTVSPost2010PropOp37
 70
     1
102
RTVSPost2010Prop38
140
0.0
102
RTVSPost2010PropOp38
 70
     1
102
RTVSPost2010Prop39
140
1.0
102
RTVSPost2010PropOp39
 70
     1
102
RTVSPost2010Prop40
 90
        0
102
RTVSPost2010PropOp40
 70
     1
102
RTVSPost2010Prop41ColorIndex
 90
       18
102
RTVSPost2010Prop41ColorRGB
 90
        0
102
RTVSPost2010PropOp41
 70
     1
102
RTVSPost2010Prop42
 90
       50
102
RTVSPost2010PropOp42
 70
     1
102
RTVSPost2010Prop43
 90
        3
102
RTVSPost2010PropOp43
 70
     1
102
RTVSPost2010Prop44ColorIndex
 90
        5
102
RTVSPost2010Prop44ColorRGB
 90
      255
102
RTVSPost2010PropOp44
 70
     1
102
RTVSPost2010Prop45
280
     0
102
RTVSPost2010PropOp45
 70
     1
102
RTVSPost2010Prop46
 90
       50
102
RTVSPost2010PropOp46
 70
     1
102
RTVSPost2010Prop47
 90
       50
102
RTVSPost2010PropOp47
 70
     1
102
RTVSPost2010Prop48
 90
       50
102
RTVSPost2010PropOp48
 70
     1
102
RTVSPost2010Prop49
280
     0
102
RTVSPost2010PropOp49
 70
     1
102
RTVSPost2010Prop50
 90
       50
102
RTVSPost2010PropOp50
 70
     1
102
RTVSPost2010Prop51ColorIndex
 90
      256
102
RTVSPost2010Prop51ColorRGB
 90
-16777216
102
RTVSPost2010PropOp51
 70
     0
102
RTVSPost2010Prop52
140
1.0
102
RTVSPost2010PropOp52
 70
     0
102
RTVSPost2010Prop53
 90
        2
102
RTVSPost2010PropOp53
 70
     1
102
RTVSPost2010Prop54
  1
strokes_ogs.tif
102
RTVSPost2010PropOp54
 70
     1
102
RTVSPost2010Prop55
280
     0
102
RTVSPost2010PropOp55
 70
     1
102
RTVSPost2010Prop56
140
1.0
102
RTVSPost2010PropOp56
 70
     1
102
RTVSPost2010Prop57
140
1.0
102
RTVSPost2010PropOp57
 70
     1
102
RTVSPropertyOp0
 70
     1
102
RTVSPropertyOp1
 70
     1
102
RTVSPropertyOp2
 70
     1
102
RTVSPropertyOp3
 70
     1
102
RTVSPropertyOp4
 70
     1
102
RTVSPropertyOp5
 70
     1
102
RTVSPropertyOp6
 70
     1
102
RTVSPropertyOp7
 70
     1
102
RTVSPropertyOp8
 70
     1
102
RTVSPropertyOp9
 70
     1
102
RTVSPropertyOp10
 70
     1
102
RTVSPropertyOp11
 70
     1
102
RTVSPropertyOp12
 70
     1
102
RTVSPropertyOp13
 70
     1
102
RTVSPropertyOp14
 70
     1
102
RTVSPropertyOp15
 70
     1
102
RTVSPropertyOp16
 70
     1
102
RTVSPropertyOp17
 70
     1
102
RTVSPropertyOp18
 70
     1
102
RTVSPropertyOp19
 70
     1
102
RTVSPropertyOp20
 70
     1
102
RTVSPropertyOp21
 70
     1
102
RTVSPropertyOp22
 70
     1
102
RTVSPropertyOp23
 70
     1
102
RTVSPropertyOp24
 70
     1
102
RTVSPropertyOp25
 70
     1
102
RTVSPropertyOp26
 70
     1
102
RTVSPropertyOp27
 70
     1
102
RTVSPropertyOp28
 70
     1
102
RTVSPropertyOp29
 70
     1
102
RTVSPropertyOp30
 70
     1
102
RTVSPropertyOp31
 70
     1
102
RTVSPropertyOp32
 70
     1
102
RTVSPropertyOp33
 70
     1
102
RTVSPropertyOp34
 70
     1
102
RTVSPropertyOp35
 70
     1
102
RTVSPropertyOp36
 70
     1
102
RTVSPropertyOp37
 70
     1
102
RTVSPropertyOp38
 70
     1
102
RTVSPropertyOp39
 70
     1
102
RTVSPropertyOp40
 70
     1
102
RTVSPropertyOp41
 70
     1
102
RTVSPropertyOp42
 70
     1
102
RTVSPropertyOp43
 70
     1
102
RTVSPropertyOp44
 70
     1
102
RTVSPropertyOp45
 70
     1
102
RTVSPropertyOp46
 70
     1
102
RTVSPropertyOp47
 70
     1
102
RTVSPropertyOp48
 70
     1
102
RTVSPropertyOp49
 70
     1
102
RTVSPropertyOp50
 70
     1
102
RTVSPropertyOp51
 70
     0
102
RTVSPropertyOp52
 70
     0
102
RTVSPropertyOp53
 70
     1
102
RTVSPropertyOp54
 70
     1
102
RTVSPropertyOp55
 70
     1
102
RTVSPropertyOp56
 70
     1
102
RTVSPropertyOp57
 70
     1
102
RTVSPropertyOp58
 70
     1
102
RTVSPropertyOp59
 70
     1
102
RTVSPropertyOp60
 70
     1
102
RTVSPropertyOp61
 70
     1
102
RTVSPropertyOp62
 70
     1
  0
XRECORD
  5
141F
102
{ACAD_REACTORS
330
141E
102
}
330
141E
100
AcDbXrecord
280
     1
102
RTVSPost2010Prop28
280
     0
102
RTVSPost2010PropOp28
 70
     1
102
RTVSPost2010Prop29
280
     1
102
RTVSPost2010PropOp29
 70
     1
102
RTVSPost2010Prop30
280
     1
102
RTVSPost2010PropOp30
 70
     1
102
RTVSPost2010Prop31
280
     0
102
RTVSPost2010PropOp31
 70
     1
102
RTVSPost2010Prop32
280
     0
102
RTVSPost2010PropOp32
 70
     1
102
RTVSPost2010Prop33
280
     0
102
RTVSPost2010PropOp33
 70
     1
102
RTVSPost2010Prop34
280
     0
102
RTVSPost2010PropOp34
 70
     1
102
RTVSPost2010Prop35
280
     0
102
RTVSPost2010PropOp35
 70
     1
102
RTVSPost2010Prop36
280
     0
102
RTVSPost2010PropOp36
 70
     1
102
RTVSPost2010Prop37
 90
       50
102
RTVSPost2010PropOp37
 70
     1
102
RTVSPost2010Prop38
140
0.0
102
RTVSPost2010PropOp38
 70
     1
102
RTVSPost2010Prop39
140
1.0
102
RTVSPost2010PropOp39
 70
     1
102
RTVSPost2010Prop40
 90
        0
102
RTVSPost2010PropOp40
 70
     1
102
RTVSPost2010Prop41ColorIndex
 90
       18
102
RTVSPost2010Prop41ColorRGB
 90
        0
102
RTVSPost2010PropOp41
 70
     1
102
RTVSPost2010Prop42
 90
       50
102
RTVSPost2010PropOp42
 70
     1
102
RTVSPost2010Prop43
 90
        3
102
RTVSPost2010PropOp43
 70
     1
102
RTVSPost2010Prop44ColorIndex
 90
        5
102
RTVSPost2010Prop44ColorRGB
 90
      255
102
RTVSPost2010PropOp44
 70
     1
102
RTVSPost2010Prop45
280
     0
102
RTVSPost2010PropOp45
 70
     1
102
RTVSPost2010Prop46
 90
       50
102
RTVSPost2010PropOp46
 70
     1
102
RTVSPost2010Prop47
 90
       50
102
RTVSPost2010PropOp47
 70
     1
102
RTVSPost2010Prop48
 90
       50
102
RTVSPost2010PropOp48
 70
     1
102
RTVSPost2010Prop49
280
     0
102
RTVSPost2010PropOp49
 70
     1
102
RTVSPost2010Prop50
 90
       50
102
RTVSPost2010PropOp50
 70
     1
102
RTVSPost2010Prop51ColorIndex
 90
      256
102
RTVSPost2010Prop51ColorRGB
 90
-16777216
102
RTVSPost2010PropOp51
 70
     0
102
RTVSPost2010Prop52
140
1.0
102
RTVSPost2010PropOp52
 70
     0
102
RTVSPost2010Prop53
 90
        2
102
RTVSPost2010PropOp53
 70
     1
102
RTVSPost2010Prop54
  1
strokes_ogs.tif
102
RTVSPost2010PropOp54
 70
     1
102
RTVSPost2010Prop55
280
     0
102
RTVSPost2010PropOp55
 70
     1
102
RTVSPost2010Prop56
140
1.0
102
RTVSPost2010PropOp56
 70
     1
102
RTVSPost2010Prop57
140
1.0
102
RTVSPost2010PropOp57
 70
     1
102
RTVSPropertyOp0
 70
     1
102
RTVSPropertyOp1
 70
     1
102
RTVSPropertyOp2
 70
     1
102
RTVSPropertyOp3
 70
     1
102
RTVSPropertyOp4
 70
     1
102
RTVSPropertyOp5
 70
     1
102
RTVSPropertyOp6
 70
     1
102
RTVSPropertyOp7
 70
     1
102
RTVSPropertyOp8
 70
     1
102
RTVSPropertyOp9
 70
     1
102
RTVSPropertyOp10
 70
     1
102
RTVSPropertyOp11
 70
     1
102
RTVSPropertyOp12
 70
     1
102
RTVSPropertyOp13
 70
     1
102
RTVSPropertyOp14
 70
     1
102
RTVSPropertyOp15
 70
     1
102
RTVSPropertyOp16
 70
     1
102
RTVSPropertyOp17
 70
     1
102
RTVSPropertyOp18
 70
     1
102
RTVSPropertyOp19
 70
     1
102
RTVSPropertyOp20
 70
     1
102
RTVSPropertyOp21
 70
     1
102
RTVSPropertyOp22
 70
     1
102
RTVSPropertyOp23
 70
     1
102
RTVSPropertyOp24
 70
     1
102
RTVSPropertyOp25
 70
     1
102
RTVSPropertyOp26
 70
     1
102
RTVSPropertyOp27
 70
     1
102
RTVSPropertyOp28
 70
     1
102
RTVSPropertyOp29
 70
     1
102
RTVSPropertyOp30
 70
     1
102
RTVSPropertyOp31
 70
     1
102
RTVSPropertyOp32
 70
     1
102
RTVSPropertyOp33
 70
     1
102
RTVSPropertyOp34
 70
     1
102
RTVSPropertyOp35
 70
     1
102
RTVSPropertyOp36
 70
     1
102
RTVSPropertyOp37
 70
     1
102
RTVSPropertyOp38
 70
     1
102
RTVSPropertyOp39
 70
     1
102
RTVSPropertyOp40
 70
     1
102
RTVSPropertyOp41
 70
     1
102
RTVSPropertyOp42
 70
     1
102
RTVSPropertyOp43
 70
     1
102
RTVSPropertyOp44
 70
     1
102
RTVSPropertyOp45
 70
     1
102
RTVSPropertyOp46
 70
     1
102
RTVSPropertyOp47
 70
     1
102
RTVSPropertyOp48
 70
     1
102
RTVSPropertyOp49
 70
     1
102
RTVSPropertyOp50
 70
     1
102
RTVSPropertyOp51
 70
     0
102
RTVSPropertyOp52
 70
     0
102
RTVSPropertyOp53
 70
     1
102
RTVSPropertyOp54
 70
     1
102
RTVSPropertyOp55
 70
     1
102
RTVSPropertyOp56
 70
     1
102
RTVSPropertyOp57
 70
     1
102
RTVSPropertyOp58
 70
     1
102
RTVSPropertyOp59
 70
     1
102
RTVSPropertyOp60
 70
     1
102
RTVSPropertyOp61
 70
     1
102
RTVSPropertyOp62
 70
     1
  0
XRECORD
  5
1427
102
{ACAD_REACTORS
330
1426
102
}
330
1426
100
AcDbXrecord
280
     1
102
RTVSPost2010Prop28
280
     0
102
RTVSPost2010PropOp28
 70
     1
102
RTVSPost2010Prop29
280
     1
102
RTVSPost2010PropOp29
 70
     1
102
RTVSPost2010Prop30
280
     1
102
RTVSPost2010PropOp30
 70
     1
102
RTVSPost2010Prop31
280
     0
102
RTVSPost2010PropOp31
 70
     1
102
RTVSPost2010Prop32
280
     0
102
RTVSPost2010PropOp32
 70
     1
102
RTVSPost2010Prop33
280
     0
102
RTVSPost2010PropOp33
 70
     1
102
RTVSPost2010Prop34
280
     0
102
RTVSPost2010PropOp34
 70
     1
102
RTVSPost2010Prop35
280
     0
102
RTVSPost2010PropOp35
 70
     1
102
RTVSPost2010Prop36
280
     0
102
RTVSPost2010PropOp36
 70
     1
102
RTVSPost2010Prop37
 90
       50
102
RTVSPost2010PropOp37
 70
     1
102
RTVSPost2010Prop38
140
0.0
102
RTVSPost2010PropOp38
 70
     1
102
RTVSPost2010Prop39
140
1.0
102
RTVSPost2010PropOp39
 70
     1
102
RTVSPost2010Prop40
 90
        0
102
RTVSPost2010PropOp40
 70
     1
102
RTVSPost2010Prop41ColorIndex
 90
       18
102
RTVSPost2010Prop41ColorRGB
 90
        0
102
RTVSPost2010PropOp41
 70
     1
102
RTVSPost2010Prop42
 90
       50
102
RTVSPost2010PropOp42
 70
     1
102
RTVSPost2010Prop43
 90
        3
102
RTVSPost2010PropOp43
 70
     1
102
RTVSPost2010Prop44ColorIndex
 90
        5
102
RTVSPost2010Prop44ColorRGB
 90
      255
102
RTVSPost2010PropOp44
 70
     1
102
RTVSPost2010Prop45
280
     0
102
RTVSPost2010PropOp45
 70
     1
102
RTVSPost2010Prop46
 90
       50
102
RTVSPost2010PropOp46
 70
     1
102
RTVSPost2010Prop47
 90
       50
102
RTVSPost2010PropOp47
 70
     1
102
RTVSPost2010Prop48
 90
       50
102
RTVSPost2010PropOp48
 70
     1
102
RTVSPost2010Prop49
280
     0
102
RTVSPost2010PropOp49
 70
     1
102
RTVSPost2010Prop50
 90
       50
102
RTVSPost2010PropOp50
 70
     1
102
RTVSPost2010Prop51ColorIndex
 90
      256
102
RTVSPost2010Prop51ColorRGB
 90
-16777216
102
RTVSPost2010PropOp51
 70
     0
102
RTVSPost2010Prop52
140
1.0
102
RTVSPost2010PropOp52
 70
     0
102
RTVSPost2010Prop53
 90
        2
102
RTVSPost2010PropOp53
 70
     1
102
RTVSPost2010Prop54
  1
strokes_ogs.tif
102
RTVSPost2010PropOp54
 70
     1
102
RTVSPost2010Prop55
280
     0
102
RTVSPost2010PropOp55
 70
     1
102
RTVSPost2010Prop56
140
1.0
102
RTVSPost2010PropOp56
 70
     1
102
RTVSPost2010Prop57
140
1.0
102
RTVSPost2010PropOp57
 70
     1
102
RTVSPropertyOp0
 70
     1
102
RTVSPropertyOp1
 70
     1
102
RTVSPropertyOp2
 70
     1
102
RTVSPropertyOp3
 70
     1
102
RTVSPropertyOp4
 70
     1
102
RTVSPropertyOp5
 70
     1
102
RTVSPropertyOp6
 70
     1
102
RTVSPropertyOp7
 70
     1
102
RTVSPropertyOp8
 70
     1
102
RTVSPropertyOp9
 70
     1
102
RTVSPropertyOp10
 70
     1
102
RTVSPropertyOp11
 70
     1
102
RTVSPropertyOp12
 70
     1
102
RTVSPropertyOp13
 70
     1
102
RTVSPropertyOp14
 70
     1
102
RTVSPropertyOp15
 70
     1
102
RTVSPropertyOp16
 70
     1
102
RTVSPropertyOp17
 70
     1
102
RTVSPropertyOp18
 70
     1
102
RTVSPropertyOp19
 70
     1
102
RTVSPropertyOp20
 70
     1
102
RTVSPropertyOp21
 70
     1
102
RTVSPropertyOp22
 70
     1
102
RTVSPropertyOp23
 70
     1
102
RTVSPropertyOp24
 70
     1
102
RTVSPropertyOp25
 70
     1
102
RTVSPropertyOp26
 70
     1
102
RTVSPropertyOp27
 70
     1
102
RTVSPropertyOp28
 70
     1
102
RTVSPropertyOp29
 70
     1
102
RTVSPropertyOp30
 70
     1
102
RTVSPropertyOp31
 70
     1
102
RTVSPropertyOp32
 70
     1
102
RTVSPropertyOp33
 70
     1
102
RTVSPropertyOp34
 70
     1
102
RTVSPropertyOp35
 70
     1
102
RTVSPropertyOp36
 70
     1
102
RTVSPropertyOp37
 70
     1
102
RTVSPropertyOp38
 70
     1
102
RTVSPropertyOp39
 70
     1
102
RTVSPropertyOp40
 70
     1
102
RTVSPropertyOp41
 70
     1
102
RTVSPropertyOp42
 70
     1
102
RTVSPropertyOp43
 70
     1
102
RTVSPropertyOp44
 70
     1
102
RTVSPropertyOp45
 70
     1
102
RTVSPropertyOp46
 70
     1
102
RTVSPropertyOp47
 70
     1
102
RTVSPropertyOp48
 70
     1
102
RTVSPropertyOp49
 70
     1
102
RTVSPropertyOp50
 70
     1
102
RTVSPropertyOp51
 70
     0
102
RTVSPropertyOp52
 70
     0
102
RTVSPropertyOp53
 70
     1
102
RTVSPropertyOp54
 70
     1
102
RTVSPropertyOp55
 70
     1
102
RTVSPropertyOp56
 70
     1
102
RTVSPropertyOp57
 70
     1
102
RTVSPropertyOp58
 70
     1
102
RTVSPropertyOp59
 70
     1
102
RTVSPropertyOp60
 70
     1
102
RTVSPropertyOp61
 70
     1
102
RTVSPropertyOp62
 70
     1
  0
XRECORD
  5
1439
102
{ACAD_REACTORS
330
1438
102
}
330
1438
100
AcDbXrecord
280
     1
102
RTVSPost2010Prop28
280
     0
102
RTVSPost2010PropOp28
 70
     1
102
RTVSPost2010Prop29
280
     1
102
RTVSPost2010PropOp29
 70
     1
102
RTVSPost2010Prop30
280
     1
102
RTVSPost2010PropOp30
 70
     1
102
RTVSPost2010Prop31
280
     0
102
RTVSPost2010PropOp31
 70
     1
102
RTVSPost2010Prop32
280
     0
102
RTVSPost2010PropOp32
 70
     1
102
RTVSPost2010Prop33
280
     0
102
RTVSPost2010PropOp33
 70
     1
102
RTVSPost2010Prop34
280
     0
102
RTVSPost2010PropOp34
 70
     1
102
RTVSPost2010Prop35
280
     0
102
RTVSPost2010PropOp35
 70
     1
102
RTVSPost2010Prop36
280
     0
102
RTVSPost2010PropOp36
 70
     1
102
RTVSPost2010Prop37
 90
       50
102
RTVSPost2010PropOp37
 70
     1
102
RTVSPost2010Prop38
140
0.0
102
RTVSPost2010PropOp38
 70
     1
102
RTVSPost2010Prop39
140
1.0
102
RTVSPost2010PropOp39
 70
     1
102
RTVSPost2010Prop40
 90
        0
102
RTVSPost2010PropOp40
 70
     1
102
RTVSPost2010Prop41ColorIndex
 90
       18
102
RTVSPost2010Prop41ColorRGB
 90
        0
102
RTVSPost2010PropOp41
 70
     1
102
RTVSPost2010Prop42
 90
       50
102
RTVSPost2010PropOp42
 70
     1
102
RTVSPost2010Prop43
 90
        3
102
RTVSPost2010PropOp43
 70
     1
102
RTVSPost2010Prop44ColorIndex
 90
        5
102
RTVSPost2010Prop44ColorRGB
 90
      255
102
RTVSPost2010PropOp44
 70
     1
102
RTVSPost2010Prop45
280
     0
102
RTVSPost2010PropOp45
 70
     1
102
RTVSPost2010Prop46
 90
       50
102
RTVSPost2010PropOp46
 70
     1
102
RTVSPost2010Prop47
 90
       50
102
RTVSPost2010PropOp47
 70
     1
102
RTVSPost2010Prop48
 90
       50
102
RTVSPost2010PropOp48
 70
     1
102
RTVSPost2010Prop49
280
     0
102
RTVSPost2010PropOp49
 70
     1
102
RTVSPost2010Prop50
 90
       50
102
RTVSPost2010PropOp50
 70
     1
102
RTVSPost2010Prop51ColorIndex
 90
      256
102
RTVSPost2010Prop51ColorRGB
 90
-16777216
102
RTVSPost2010PropOp51
 70
     0
102
RTVSPost2010Prop52
140
1.0
102
RTVSPost2010PropOp52
 70
     0
102
RTVSPost2010Prop53
 90
        2
102
RTVSPost2010PropOp53
 70
     1
102
RTVSPost2010Prop54
  1
strokes_ogs.tif
102
RTVSPost2010PropOp54
 70
     1
102
RTVSPost2010Prop55
280
     0
102
RTVSPost2010PropOp55
 70
     1
102
RTVSPost2010Prop56
140
1.0
102
RTVSPost2010PropOp56
 70
     1
102
RTVSPost2010Prop57
140
1.0
102
RTVSPost2010PropOp57
 70
     1
102
RTVSPropertyOp0
 70
     0
102
RTVSPropertyOp1
 70
     0
102
RTVSPropertyOp2
 70
     0
102
RTVSPropertyOp3
 70
     0
102
RTVSPropertyOp4
 70
     0
102
RTVSPropertyOp5
 70
     0
102
RTVSPropertyOp6
 70
     0
102
RTVSPropertyOp7
 70
     0
102
RTVSPropertyOp8
 70
     0
102
RTVSPropertyOp9
 70
     0
102
RTVSPropertyOp10
 70
     0
102
RTVSPropertyOp11
 70
     0
102
RTVSPropertyOp12
 70
     0
102
RTVSPropertyOp13
 70
     0
102
RTVSPropertyOp14
 70
     2
102
RTVSPropertyOp15
 70
     0
102
RTVSPropertyOp16
 70
     0
102
RTVSPropertyOp17
 70
     0
102
RTVSPropertyOp18
 70
     0
102
RTVSPropertyOp19
 70
     0
102
RTVSPropertyOp20
 70
     0
102
RTVSPropertyOp21
 70
     0
102
RTVSPropertyOp22
 70
     0
102
RTVSPropertyOp23
 70
     0
102
RTVSPropertyOp24
 70
     0
102
RTVSPropertyOp25
 70
     0
102
RTVSPropertyOp26
 70
     0
102
RTVSPropertyOp27
 70
     0
102
RTVSPropertyOp28
 70
     1
102
RTVSPropertyOp29
 70
     1
102
RTVSPropertyOp30
 70
     1
102
RTVSPropertyOp31
 70
     1
102
RTVSPropertyOp32
 70
     1
102
RTVSPropertyOp33
 70
     1
102
RTVSPropertyOp34
 70
     1
102
RTVSPropertyOp35
 70
     1
102
RTVSPropertyOp36
 70
     1
102
RTVSPropertyOp37
 70
     1
102
RTVSPropertyOp38
 70
     1
102
RTVSPropertyOp39
 70
     1
102
RTVSPropertyOp40
 70
     1
102
RTVSPropertyOp41
 70
     1
102
RTVSPropertyOp42
 70
     1
102
RTVSPropertyOp43
 70
     1
102
RTVSPropertyOp44
 70
     1
102
RTVSPropertyOp45
 70
     1
102
RTVSPropertyOp46
 70
     1
102
RTVSPropertyOp47
 70
     1
102
RTVSPropertyOp48
 70
     1
102
RTVSPropertyOp49
 70
     1
102
RTVSPropertyOp50
 70
     1
102
RTVSPropertyOp51
 70
     0
102
RTVSPropertyOp52
 70
     0
102
RTVSPropertyOp53
 70
     1
102
RTVSPropertyOp54
 70
     1
102
RTVSPropertyOp55
 70
     1
102
RTVSPropertyOp56
 70
     1
102
RTVSPropertyOp57
 70
     1
102
RTVSPropertyOp58
 70
     1
102
RTVSPropertyOp59
 70
     1
102
RTVSPropertyOp60
 70
     1
102
RTVSPropertyOp61
 70
     1
102
RTVSPropertyOp62
 70
     1
  0
XRECORD
  5
1433
102
{ACAD_REACTORS
330
1432
102
}
330
1432
100
AcDbXrecord
280
     1
102
RTVSPost2010Prop28
280
     0
102
RTVSPost2010PropOp28
 70
     1
102
RTVSPost2010Prop29
280
     1
102
RTVSPost2010PropOp29
 70
     1
102
RTVSPost2010Prop30
280
     1
102
RTVSPost2010PropOp30
 70
     1
102
RTVSPost2010Prop31
280
     0
102
RTVSPost2010PropOp31
 70
     1
102
RTVSPost2010Prop32
280
     0
102
RTVSPost2010PropOp32
 70
     1
102
RTVSPost2010Prop33
280
     0
102
RTVSPost2010PropOp33
 70
     1
102
RTVSPost2010Prop34
280
     0
102
RTVSPost2010PropOp34
 70
     1
102
RTVSPost2010Prop35
280
     0
102
RTVSPost2010PropOp35
 70
     1
102
RTVSPost2010Prop36
280
     0
102
RTVSPost2010PropOp36
 70
     1
102
RTVSPost2010Prop37
 90
       50
102
RTVSPost2010PropOp37
 70
     1
102
RTVSPost2010Prop38
140
0.0
102
RTVSPost2010PropOp38
 70
     1
102
RTVSPost2010Prop39
140
1.0
102
RTVSPost2010PropOp39
 70
     1
102
RTVSPost2010Prop40
 90
        0
102
RTVSPost2010PropOp40
 70
     1
102
RTVSPost2010Prop41ColorIndex
 90
       18
102
RTVSPost2010Prop41ColorRGB
 90
        0
102
RTVSPost2010PropOp41
 70
     1
102
RTVSPost2010Prop42
 90
       50
102
RTVSPost2010PropOp42
 70
     1
102
RTVSPost2010Prop43
 90
        3
102
RTVSPost2010PropOp43
 70
     1
102
RTVSPost2010Prop44ColorIndex
 90
        5
102
RTVSPost2010Prop44ColorRGB
 90
      255
102
RTVSPost2010PropOp44
 70
     1
102
RTVSPost2010Prop45
280
     0
102
RTVSPost2010PropOp45
 70
     1
102
RTVSPost2010Prop46
 90
       50
102
RTVSPost2010PropOp46
 70
     1
102
RTVSPost2010Prop47
 90
       50
102
RTVSPost2010PropOp47
 70
     1
102
RTVSPost2010Prop48
 90
       50
102
RTVSPost2010PropOp48
 70
     1
102
RTVSPost2010Prop49
280
     0
102
RTVSPost2010PropOp49
 70
     1
102
RTVSPost2010Prop50
 90
       50
102
RTVSPost2010PropOp50
 70
     1
102
RTVSPost2010Prop51ColorIndex
 90
      256
102
RTVSPost2010Prop51ColorRGB
 90
-16777216
102
RTVSPost2010PropOp51
 70
     0
102
RTVSPost2010Prop52
140
1.0
102
RTVSPost2010PropOp52
 70
     0
102
RTVSPost2010Prop53
 90
        2
102
RTVSPost2010PropOp53
 70
     1
102
RTVSPost2010Prop54
  1
strokes_ogs.tif
102
RTVSPost2010PropOp54
 70
     1
102
RTVSPost2010Prop55
280
     0
102
RTVSPost2010PropOp55
 70
     1
102
RTVSPost2010Prop56
140
1.0
102
RTVSPost2010PropOp56
 70
     1
102
RTVSPost2010Prop57
140
1.0
102
RTVSPost2010PropOp57
 70
     1
102
RTVSPropertyOp0
 70
     1
102
RTVSPropertyOp1
 70
     1
102
RTVSPropertyOp2
 70
     1
102
RTVSPropertyOp3
 70
     1
102
RTVSPropertyOp4
 70
     1
102
RTVSPropertyOp5
 70
     1
102
RTVSPropertyOp6
 70
     1
102
RTVSPropertyOp7
 70
     1
102
RTVSPropertyOp8
 70
     1
102
RTVSPropertyOp9
 70
     1
102
RTVSPropertyOp10
 70
     1
102
RTVSPropertyOp11
 70
     1
102
RTVSPropertyOp12
 70
     1
102
RTVSPropertyOp13
 70
     1
102
RTVSPropertyOp14
 70
     1
102
RTVSPropertyOp15
 70
     1
102
RTVSPropertyOp16
 70
     1
102
RTVSPropertyOp17
 70
     1
102
RTVSPropertyOp18
 70
     1
102
RTVSPropertyOp19
 70
     1
102
RTVSPropertyOp20
 70
     1
102
RTVSPropertyOp21
 70
     1
102
RTVSPropertyOp22
 70
     1
102
RTVSPropertyOp23
 70
     1
102
RTVSPropertyOp24
 70
     1
102
RTVSPropertyOp25
 70
     1
102
RTVSPropertyOp26
 70
     1
102
RTVSPropertyOp27
 70
     1
102
RTVSPropertyOp28
 70
     1
102
RTVSPropertyOp29
 70
     1
102
RTVSPropertyOp30
 70
     1
102
RTVSPropertyOp31
 70
     1
102
RTVSPropertyOp32
 70
     1
102
RTVSPropertyOp33
 70
     1
102
RTVSPropertyOp34
 70
     1
102
RTVSPropertyOp35
 70
     1
102
RTVSPropertyOp36
 70
     1
102
RTVSPropertyOp37
 70
     1
102
RTVSPropertyOp38
 70
     1
102
RTVSPropertyOp39
 70
     1
102
RTVSPropertyOp40
 70
     1
102
RTVSPropertyOp41
 70
     1
102
RTVSPropertyOp42
 70
     1
102
RTVSPropertyOp43
 70
     1
102
RTVSPropertyOp44
 70
     1
102
RTVSPropertyOp45
 70
     1
102
RTVSPropertyOp46
 70
     1
102
RTVSPropertyOp47
 70
     1
102
RTVSPropertyOp48
 70
     1
102
RTVSPropertyOp49
 70
     1
102
RTVSPropertyOp50
 70
     1
102
RTVSPropertyOp51
 70
     0
102
RTVSPropertyOp52
 70
     0
102
RTVSPropertyOp53
 70
     1
102
RTVSPropertyOp54
 70
     1
102
RTVSPropertyOp55
 70
     1
102
RTVSPropertyOp56
 70
     1
102
RTVSPropertyOp57
 70
     1
102
RTVSPropertyOp58
 70
     1
102
RTVSPropertyOp59
 70
     1
102
RTVSPropertyOp60
 70
     1
102
RTVSPropertyOp61
 70
     1
102
RTVSPropertyOp62
 70
     1
  0
XRECORD
  5
143B
102
{ACAD_REACTORS
330
143A
102
}
330
143A
100
AcDbXrecord
280
     1
102
RTVSPost2010Prop28
280
     0
102
RTVSPost2010PropOp28
 70
     1
102
RTVSPost2010Prop29
280
     1
102
RTVSPost2010PropOp29
 70
     1
102
RTVSPost2010Prop30
280
     1
102
RTVSPost2010PropOp30
 70
     1
102
RTVSPost2010Prop31
280
     0
102
RTVSPost2010PropOp31
 70
     1
102
RTVSPost2010Prop32
280
     0
102
RTVSPost2010PropOp32
 70
     1
102
RTVSPost2010Prop33
280
     0
102
RTVSPost2010PropOp33
 70
     1
102
RTVSPost2010Prop34
280
     0
102
RTVSPost2010PropOp34
 70
     1
102
RTVSPost2010Prop35
280
     0
102
RTVSPost2010PropOp35
 70
     1
102
RTVSPost2010Prop36
280
     0
102
RTVSPost2010PropOp36
 70
     1
102
RTVSPost2010Prop37
 90
       50
102
RTVSPost2010PropOp37
 70
     1
102
RTVSPost2010Prop38
140
0.0
102
RTVSPost2010PropOp38
 70
     1
102
RTVSPost2010Prop39
140
1.0
102
RTVSPost2010PropOp39
 70
     1
102
RTVSPost2010Prop40
 90
        0
102
RTVSPost2010PropOp40
 70
     1
102
RTVSPost2010Prop41ColorIndex
 90
       18
102
RTVSPost2010Prop41ColorRGB
 90
        0
102
RTVSPost2010PropOp41
 70
     1
102
RTVSPost2010Prop42
 90
       50
102
RTVSPost2010PropOp42
 70
     1
102
RTVSPost2010Prop43
 90
        3
102
RTVSPost2010PropOp43
 70
     1
102
RTVSPost2010Prop44ColorIndex
 90
        5
102
RTVSPost2010Prop44ColorRGB
 90
      255
102
RTVSPost2010PropOp44
 70
     1
102
RTVSPost2010Prop45
280
     0
102
RTVSPost2010PropOp45
 70
     1
102
RTVSPost2010Prop46
 90
       50
102
RTVSPost2010PropOp46
 70
     1
102
RTVSPost2010Prop47
 90
       50
102
RTVSPost2010PropOp47
 70
     1
102
RTVSPost2010Prop48
 90
       50
102
RTVSPost2010PropOp48
 70
     1
102
RTVSPost2010Prop49
280
     0
102
RTVSPost2010PropOp49
 70
     1
102
RTVSPost2010Prop50
 90
       50
102
RTVSPost2010PropOp50
 70
     1
102
RTVSPost2010Prop51ColorIndex
 90
      256
102
RTVSPost2010Prop51ColorRGB
 90
-16777216
102
RTVSPost2010PropOp51
 70
     0
102
RTVSPost2010Prop52
140
1.0
102
RTVSPost2010PropOp52
 70
     0
102
RTVSPost2010Prop53
 90
        2
102
RTVSPost2010PropOp53
 70
     1
102
RTVSPost2010Prop54
  1
strokes_ogs.tif
102
RTVSPost2010PropOp54
 70
     1
102
RTVSPost2010Prop55
280
     0
102
RTVSPost2010PropOp55
 70
     1
102
RTVSPost2010Prop56
140
1.0
102
RTVSPost2010PropOp56
 70
     1
102
RTVSPost2010Prop57
140
1.0
102
RTVSPost2010PropOp57
 70
     1
102
RTVSPropertyOp0
 70
     0
102
RTVSPropertyOp1
 70
     0
102
RTVSPropertyOp2
 70
     0
102
RTVSPropertyOp3
 70
     0
102
RTVSPropertyOp4
 70
     0
102
RTVSPropertyOp5
 70
     0
102
RTVSPropertyOp6
 70
     0
102
RTVSPropertyOp7
 70
     0
102
RTVSPropertyOp8
 70
     0
102
RTVSPropertyOp9
 70
     0
102
RTVSPropertyOp10
 70
     0
102
RTVSPropertyOp11
 70
     0
102
RTVSPropertyOp12
 70
     0
102
RTVSPropertyOp13
 70
     0
102
RTVSPropertyOp14
 70
     2
102
RTVSPropertyOp15
 70
     0
102
RTVSPropertyOp16
 70
     0
102
RTVSPropertyOp17
 70
     0
102
RTVSPropertyOp18
 70
     0
102
RTVSPropertyOp19
 70
     0
102
RTVSPropertyOp20
 70
     0
102
RTVSPropertyOp21
 70
     0
102
RTVSPropertyOp22
 70
     0
102
RTVSPropertyOp23
 70
     0
102
RTVSPropertyOp24
 70
     0
102
RTVSPropertyOp25
 70
     0
102
RTVSPropertyOp26
 70
     0
102
RTVSPropertyOp27
 70
     0
102
RTVSPropertyOp28
 70
     1
102
RTVSPropertyOp29
 70
     1
102
RTVSPropertyOp30
 70
     1
102
RTVSPropertyOp31
 70
     1
102
RTVSPropertyOp32
 70
     1
102
RTVSPropertyOp33
 70
     1
102
RTVSPropertyOp34
 70
     1
102
RTVSPropertyOp35
 70
     1
102
RTVSPropertyOp36
 70
     1
102
RTVSPropertyOp37
 70
     1
102
RTVSPropertyOp38
 70
     1
102
RTVSPropertyOp39
 70
     1
102
RTVSPropertyOp40
 70
     1
102
RTVSPropertyOp41
 70
     1
102
RTVSPropertyOp42
 70
     1
102
RTVSPropertyOp43
 70
     1
102
RTVSPropertyOp44
 70
     1
102
RTVSPropertyOp45
 70
     1
102
RTVSPropertyOp46
 70
     1
102
RTVSPropertyOp47
 70
     1
102
RTVSPropertyOp48
 70
     1
102
RTVSPropertyOp49
 70
     1
102
RTVSPropertyOp50
 70
     1
102
RTVSPropertyOp51
 70
     0
102
RTVSPropertyOp52
 70
     0
102
RTVSPropertyOp53
 70
     1
102
RTVSPropertyOp54
 70
     1
102
RTVSPropertyOp55
 70
     1
102
RTVSPropertyOp56
 70
     1
102
RTVSPropertyOp57
 70
     1
102
RTVSPropertyOp58
 70
     1
102
RTVSPropertyOp59
 70
     1
102
RTVSPropertyOp60
 70
     1
102
RTVSPropertyOp61
 70
     1
102
RTVSPropertyOp62
 70
     1
  0
XRECORD
  5
142B
102
{ACAD_REACTORS
330
142A
102
}
330
142A
100
AcDbXrecord
280
     1
102
RTVSPost2010Prop28
280
     0
102
RTVSPost2010PropOp28
 70
     1
102
RTVSPost2010Prop29
280
     1
102
RTVSPost2010PropOp29
 70
     1
102
RTVSPost2010Prop30
280
     1
102
RTVSPost2010PropOp30
 70
     1
102
RTVSPost2010Prop31
280
     0
102
RTVSPost2010PropOp31
 70
     1
102
RTVSPost2010Prop32
280
     0
102
RTVSPost2010PropOp32
 70
     1
102
RTVSPost2010Prop33
280
     0
102
RTVSPost2010PropOp33
 70
     1
102
RTVSPost2010Prop34
280
     0
102
RTVSPost2010PropOp34
 70
     1
102
RTVSPost2010Prop35
280
     0
102
RTVSPost2010PropOp35
 70
     1
102
RTVSPost2010Prop36
280
     0
102
RTVSPost2010PropOp36
 70
     1
102
RTVSPost2010Prop37
 90
       50
102
RTVSPost2010PropOp37
 70
     1
102
RTVSPost2010Prop38
140
0.0
102
RTVSPost2010PropOp38
 70
     1
102
RTVSPost2010Prop39
140
1.0
102
RTVSPost2010PropOp39
 70
     1
102
RTVSPost2010Prop40
 90
        0
102
RTVSPost2010PropOp40
 70
     1
102
RTVSPost2010Prop41ColorIndex
 90
       18
102
RTVSPost2010Prop41ColorRGB
 90
        0
102
RTVSPost2010PropOp41
 70
     1
102
RTVSPost2010Prop42
 90
       50
102
RTVSPost2010PropOp42
 70
     1
102
RTVSPost2010Prop43
 90
        3
102
RTVSPost2010PropOp43
 70
     1
102
RTVSPost2010Prop44ColorIndex
 90
        5
102
RTVSPost2010Prop44ColorRGB
 90
      255
102
RTVSPost2010PropOp44
 70
     1
102
RTVSPost2010Prop45
280
     0
102
RTVSPost2010PropOp45
 70
     1
102
RTVSPost2010Prop46
 90
       50
102
RTVSPost2010PropOp46
 70
     1
102
RTVSPost2010Prop47
 90
       50
102
RTVSPost2010PropOp47
 70
     1
102
RTVSPost2010Prop48
 90
       50
102
RTVSPost2010PropOp48
 70
     1
102
RTVSPost2010Prop49
280
     0
102
RTVSPost2010PropOp49
 70
     1
102
RTVSPost2010Prop50
 90
       50
102
RTVSPost2010PropOp50
 70
     1
102
RTVSPost2010Prop51ColorIndex
 90
      256
102
RTVSPost2010Prop51ColorRGB
 90
-16777216
102
RTVSPost2010PropOp51
 70
     0
102
RTVSPost2010Prop52
140
1.0
102
RTVSPost2010PropOp52
 70
     0
102
RTVSPost2010Prop53
 90
        2
102
RTVSPost2010PropOp53
 70
     1
102
RTVSPost2010Prop54
  1
strokes_ogs.tif
102
RTVSPost2010PropOp54
 70
     1
102
RTVSPost2010Prop55
280
     0
102
RTVSPost2010PropOp55
 70
     1
102
RTVSPost2010Prop56
140
1.0
102
RTVSPost2010PropOp56
 70
     1
102
RTVSPost2010Prop57
140
1.0
102
RTVSPost2010PropOp57
 70
     1
102
RTVSPropertyOp0
 70
     1
102
RTVSPropertyOp1
 70
     1
102
RTVSPropertyOp2
 70
     1
102
RTVSPropertyOp3
 70
     1
102
RTVSPropertyOp4
 70
     1
102
RTVSPropertyOp5
 70
     1
102
RTVSPropertyOp6
 70
     1
102
RTVSPropertyOp7
 70
     1
102
RTVSPropertyOp8
 70
     1
102
RTVSPropertyOp9
 70
     1
102
RTVSPropertyOp10
 70
     1
102
RTVSPropertyOp11
 70
     1
102
RTVSPropertyOp12
 70
     1
102
RTVSPropertyOp13
 70
     1
102
RTVSPropertyOp14
 70
     1
102
RTVSPropertyOp15
 70
     1
102
RTVSPropertyOp16
 70
     1
102
RTVSPropertyOp17
 70
     1
102
RTVSPropertyOp18
 70
     1
102
RTVSPropertyOp19
 70
     1
102
RTVSPropertyOp20
 70
     1
102
RTVSPropertyOp21
 70
     1
102
RTVSPropertyOp22
 70
     1
102
RTVSPropertyOp23
 70
     1
102
RTVSPropertyOp24
 70
     1
102
RTVSPropertyOp25
 70
     1
102
RTVSPropertyOp26
 70
     1
102
RTVSPropertyOp27
 70
     1
102
RTVSPropertyOp28
 70
     1
102
RTVSPropertyOp29
 70
     1
102
RTVSPropertyOp30
 70
     1
102
RTVSPropertyOp31
 70
     1
102
RTVSPropertyOp32
 70
     1
102
RTVSPropertyOp33
 70
     1
102
RTVSPropertyOp34
 70
     1
102
RTVSPropertyOp35
 70
     1
102
RTVSPropertyOp36
 70
     1
102
RTVSPropertyOp37
 70
     1
102
RTVSPropertyOp38
 70
     1
102
RTVSPropertyOp39
 70
     1
102
RTVSPropertyOp40
 70
     1
102
RTVSPropertyOp41
 70
     1
102
RTVSPropertyOp42
 70
     1
102
RTVSPropertyOp43
 70
     1
102
RTVSPropertyOp44
 70
     1
102
RTVSPropertyOp45
 70
     1
102
RTVSPropertyOp46
 70
     1
102
RTVSPropertyOp47
 70
     1
102
RTVSPropertyOp48
 70
     1
102
RTVSPropertyOp49
 70
     1
102
RTVSPropertyOp50
 70
     1
102
RTVSPropertyOp51
 70
     0
102
RTVSPropertyOp52
 70
     0
102
RTVSPropertyOp53
 70
     1
102
RTVSPropertyOp54
 70
     1
102
RTVSPropertyOp55
 70
     1
102
RTVSPropertyOp56
 70
     1
102
RTVSPropertyOp57
 70
     1
102
RTVSPropertyOp58
 70
     1
102
RTVSPropertyOp59
 70
     1
102
RTVSPropertyOp60
 70
     1
102
RTVSPropertyOp61
 70
     1
102
RTVSPropertyOp62
 70
     1
  0
XRECORD
  5
1447
102
{ACAD_REACTORS
330
1446
102
}
330
1446
100
AcDbXrecord
280
     1
102
RTVSPost2010Prop28
280
     0
102
RTVSPost2010PropOp28
 70
     1
102
RTVSPost2010Prop29
280
     1
102
RTVSPost2010PropOp29
 70
     1
102
RTVSPost2010Prop30
280
     1
102
RTVSPost2010PropOp30
 70
     1
102
RTVSPost2010Prop31
280
     0
102
RTVSPost2010PropOp31
 70
     1
102
RTVSPost2010Prop32
280
     0
102
RTVSPost2010PropOp32
 70
     1
102
RTVSPost2010Prop33
280
     0
102
RTVSPost2010PropOp33
 70
     1
102
RTVSPost2010Prop34
280
     0
102
RTVSPost2010PropOp34
 70
     1
102
RTVSPost2010Prop35
280
     0
102
RTVSPost2010PropOp35
 70
     1
102
RTVSPost2010Prop36
280
     0
102
RTVSPost2010PropOp36
 70
     1
102
RTVSPost2010Prop37
 90
       50
102
RTVSPost2010PropOp37
 70
     1
102
RTVSPost2010Prop38
140
0.0
102
RTVSPost2010PropOp38
 70
     1
102
RTVSPost2010Prop39
140
1.0
102
RTVSPost2010PropOp39
 70
     1
102
RTVSPost2010Prop40
 90
        0
102
RTVSPost2010PropOp40
 70
     1
102
RTVSPost2010Prop41ColorIndex
 90
       18
102
RTVSPost2010Prop41ColorRGB
 90
        0
102
RTVSPost2010PropOp41
 70
     1
102
RTVSPost2010Prop42
 90
       50
102
RTVSPost2010PropOp42
 70
     1
102
RTVSPost2010Prop43
 90
        3
102
RTVSPost2010PropOp43
 70
     1
102
RTVSPost2010Prop44ColorIndex
 90
        5
102
RTVSPost2010Prop44ColorRGB
 90
      255
102
RTVSPost2010PropOp44
 70
     1
102
RTVSPost2010Prop45
280
     0
102
RTVSPost2010PropOp45
 70
     1
102
RTVSPost2010Prop46
 90
       50
102
RTVSPost2010PropOp46
 70
     1
102
RTVSPost2010Prop47
 90
       50
102
RTVSPost2010PropOp47
 70
     1
102
RTVSPost2010Prop48
 90
       50
102
RTVSPost2010PropOp48
 70
     1
102
RTVSPost2010Prop49
280
     0
102
RTVSPost2010PropOp49
 70
     1
102
RTVSPost2010Prop50
 90
       50
102
RTVSPost2010PropOp50
 70
     1
102
RTVSPost2010Prop51ColorIndex
 90
      256
102
RTVSPost2010Prop51ColorRGB
 90
-16777216
102
RTVSPost2010PropOp51
 70
     0
102
RTVSPost2010Prop52
140
1.0
102
RTVSPost2010PropOp52
 70
     0
102
RTVSPost2010Prop53
 90
        2
102
RTVSPost2010PropOp53
 70
     1
102
RTVSPost2010Prop54
  1
strokes_ogs.tif
102
RTVSPost2010PropOp54
 70
     1
102
RTVSPost2010Prop55
280
     0
102
RTVSPost2010PropOp55
 70
     1
102
RTVSPost2010Prop56
140
1.0
102
RTVSPost2010PropOp56
 70
     1
102
RTVSPost2010Prop57
140
1.0
102
RTVSPost2010PropOp57
 70
     1
102
RTVSPropertyOp0
 70
     1
102
RTVSPropertyOp1
 70
     1
102
RTVSPropertyOp2
 70
     1
102
RTVSPropertyOp3
 70
     1
102
RTVSPropertyOp4
 70
     1
102
RTVSPropertyOp5
 70
     1
102
RTVSPropertyOp6
 70
     1
102
RTVSPropertyOp7
 70
     1
102
RTVSPropertyOp8
 70
     1
102
RTVSPropertyOp9
 70
     1
102
RTVSPropertyOp10
 70
     1
102
RTVSPropertyOp11
 70
     1
102
RTVSPropertyOp12
 70
     1
102
RTVSPropertyOp13
 70
     1
102
RTVSPropertyOp14
 70
     1
102
RTVSPropertyOp15
 70
     1
102
RTVSPropertyOp16
 70
     1
102
RTVSPropertyOp17
 70
     1
102
RTVSPropertyOp18
 70
     1
102
RTVSPropertyOp19
 70
     1
102
RTVSPropertyOp20
 70
     1
102
RTVSPropertyOp21
 70
     1
102
RTVSPropertyOp22
 70
     1
102
RTVSPropertyOp23
 70
     1
102
RTVSPropertyOp24
 70
     1
102
RTVSPropertyOp25
 70
     1
102
RTVSPropertyOp26
 70
     1
102
RTVSPropertyOp27
 70
     1
102
RTVSPropertyOp28
 70
     1
102
RTVSPropertyOp29
 70
     1
102
RTVSPropertyOp30
 70
     1
102
RTVSPropertyOp31
 70
     1
102
RTVSPropertyOp32
 70
     1
102
RTVSPropertyOp33
 70
     1
102
RTVSPropertyOp34
 70
     1
102
RTVSPropertyOp35
 70
     1
102
RTVSPropertyOp36
 70
     1
102
RTVSPropertyOp37
 70
     1
102
RTVSPropertyOp38
 70
     1
102
RTVSPropertyOp39
 70
     1
102
RTVSPropertyOp40
 70
     1
102
RTVSPropertyOp41
 70
     1
102
RTVSPropertyOp42
 70
     1
102
RTVSPropertyOp43
 70
     1
102
RTVSPropertyOp44
 70
     1
102
RTVSPropertyOp45
 70
     1
102
RTVSPropertyOp46
 70
     1
102
RTVSPropertyOp47
 70
     1
102
RTVSPropertyOp48
 70
     1
102
RTVSPropertyOp49
 70
     1
102
RTVSPropertyOp50
 70
     1
102
RTVSPropertyOp51
 70
     0
102
RTVSPropertyOp52
 70
     0
102
RTVSPropertyOp53
 70
     1
102
RTVSPropertyOp54
 70
     1
102
RTVSPropertyOp55
 70
     1
102
RTVSPropertyOp56
 70
     1
102
RTVSPropertyOp57
 70
     1
102
RTVSPropertyOp58
 70
     1
102
RTVSPropertyOp59
 70
     1
102
RTVSPropertyOp60
 70
     1
102
RTVSPropertyOp61
 70
     1
102
RTVSPropertyOp62
 70
     1
  0
XRECORD
  5
1445
102
{ACAD_REACTORS
330
1444
102
}
330
1444
100
AcDbXrecord
280
     1
102
RTVSPost2010Prop28
280
     0
102
RTVSPost2010PropOp28
 70
     1
102
RTVSPost2010Prop29
280
     1
102
RTVSPost2010PropOp29
 70
     1
102
RTVSPost2010Prop30
280
     1
102
RTVSPost2010PropOp30
 70
     1
102
RTVSPost2010Prop31
280
     0
102
RTVSPost2010PropOp31
 70
     1
102
RTVSPost2010Prop32
280
     0
102
RTVSPost2010PropOp32
 70
     1
102
RTVSPost2010Prop33
280
     0
102
RTVSPost2010PropOp33
 70
     1
102
RTVSPost2010Prop34
280
     0
102
RTVSPost2010PropOp34
 70
     1
102
RTVSPost2010Prop35
280
     0
102
RTVSPost2010PropOp35
 70
     1
102
RTVSPost2010Prop36
280
     0
102
RTVSPost2010PropOp36
 70
     1
102
RTVSPost2010Prop37
 90
       50
102
RTVSPost2010PropOp37
 70
     1
102
RTVSPost2010Prop38
140
0.0
102
RTVSPost2010PropOp38
 70
     1
102
RTVSPost2010Prop39
140
1.0
102
RTVSPost2010PropOp39
 70
     1
102
RTVSPost2010Prop40
 90
        0
102
RTVSPost2010PropOp40
 70
     1
102
RTVSPost2010Prop41ColorIndex
 90
       18
102
RTVSPost2010Prop41ColorRGB
 90
        0
102
RTVSPost2010PropOp41
 70
     1
102
RTVSPost2010Prop42
 90
       50
102
RTVSPost2010PropOp42
 70
     1
102
RTVSPost2010Prop43
 90
        3
102
RTVSPost2010PropOp43
 70
     1
102
RTVSPost2010Prop44ColorIndex
 90
        5
102
RTVSPost2010Prop44ColorRGB
 90
      255
102
RTVSPost2010PropOp44
 70
     1
102
RTVSPost2010Prop45
280
     0
102
RTVSPost2010PropOp45
 70
     1
102
RTVSPost2010Prop46
 90
       50
102
RTVSPost2010PropOp46
 70
     1
102
RTVSPost2010Prop47
 90
       50
102
RTVSPost2010PropOp47
 70
     1
102
RTVSPost2010Prop48
 90
       50
102
RTVSPost2010PropOp48
 70
     1
102
RTVSPost2010Prop49
280
     0
102
RTVSPost2010PropOp49
 70
     1
102
RTVSPost2010Prop50
 90
       50
102
RTVSPost2010PropOp50
 70
     1
102
RTVSPost2010Prop51ColorIndex
 90
      256
102
RTVSPost2010Prop51ColorRGB
 90
-16777216
102
RTVSPost2010PropOp51
 70
     0
102
RTVSPost2010Prop52
140
1.0
102
RTVSPost2010PropOp52
 70
     0
102
RTVSPost2010Prop53
 90
        2
102
RTVSPost2010PropOp53
 70
     1
102
RTVSPost2010Prop54
  1
strokes_ogs.tif
102
RTVSPost2010PropOp54
 70
     1
102
RTVSPost2010Prop55
280
     0
102
RTVSPost2010PropOp55
 70
     1
102
RTVSPost2010Prop56
140
1.0
102
RTVSPost2010PropOp56
 70
     1
102
RTVSPost2010Prop57
140
1.0
102
RTVSPost2010PropOp57
 70
     1
102
RTVSPropertyOp0
 70
     1
102
RTVSPropertyOp1
 70
     1
102
RTVSPropertyOp2
 70
     1
102
RTVSPropertyOp3
 70
     1
102
RTVSPropertyOp4
 70
     1
102
RTVSPropertyOp5
 70
     1
102
RTVSPropertyOp6
 70
     1
102
RTVSPropertyOp7
 70
     1
102
RTVSPropertyOp8
 70
     1
102
RTVSPropertyOp9
 70
     1
102
RTVSPropertyOp10
 70
     1
102
RTVSPropertyOp11
 70
     1
102
RTVSPropertyOp12
 70
     1
102
RTVSPropertyOp13
 70
     1
102
RTVSPropertyOp14
 70
     1
102
RTVSPropertyOp15
 70
     1
102
RTVSPropertyOp16
 70
     1
102
RTVSPropertyOp17
 70
     1
102
RTVSPropertyOp18
 70
     1
102
RTVSPropertyOp19
 70
     1
102
RTVSPropertyOp20
 70
     1
102
RTVSPropertyOp21
 70
     1
102
RTVSPropertyOp22
 70
     1
102
RTVSPropertyOp23
 70
     1
102
RTVSPropertyOp24
 70
     1
102
RTVSPropertyOp25
 70
     1
102
RTVSPropertyOp26
 70
     1
102
RTVSPropertyOp27
 70
     1
102
RTVSPropertyOp28
 70
     1
102
RTVSPropertyOp29
 70
     1
102
RTVSPropertyOp30
 70
     1
102
RTVSPropertyOp31
 70
     1
102
RTVSPropertyOp32
 70
     1
102
RTVSPropertyOp33
 70
     1
102
RTVSPropertyOp34
 70
     1
102
RTVSPropertyOp35
 70
     1
102
RTVSPropertyOp36
 70
     1
102
RTVSPropertyOp37
 70
     1
102
RTVSPropertyOp38
 70
     1
102
RTVSPropertyOp39
 70
     1
102
RTVSPropertyOp40
 70
     1
102
RTVSPropertyOp41
 70
     1
102
RTVSPropertyOp42
 70
     1
102
RTVSPropertyOp43
 70
     1
102
RTVSPropertyOp44
 70
     1
102
RTVSPropertyOp45
 70
     1
102
RTVSPropertyOp46
 70
     1
102
RTVSPropertyOp47
 70
     1
102
RTVSPropertyOp48
 70
     1
102
RTVSPropertyOp49
 70
     1
102
RTVSPropertyOp50
 70
     1
102
RTVSPropertyOp51
 70
     0
102
RTVSPropertyOp52
 70
     0
102
RTVSPropertyOp53
 70
     1
102
RTVSPropertyOp54
 70
     1
102
RTVSPropertyOp55
 70
     1
102
RTVSPropertyOp56
 70
     1
102
RTVSPropertyOp57
 70
     1
102
RTVSPropertyOp58
 70
     1
102
RTVSPropertyOp59
 70
     1
102
RTVSPropertyOp60
 70
     1
102
RTVSPropertyOp61
 70
     1
102
RTVSPropertyOp62
 70
     1
  0
XRECORD
  5
143F
102
{ACAD_REACTORS
330
143E
102
}
330
143E
100
AcDbXrecord
280
     1
102
RTVSPost2010Prop28
280
     0
102
RTVSPost2010PropOp28
 70
     1
102
RTVSPost2010Prop29
280
     1
102
RTVSPost2010PropOp29
 70
     1
102
RTVSPost2010Prop30
280
     1
102
RTVSPost2010PropOp30
 70
     1
102
RTVSPost2010Prop31
280
     0
102
RTVSPost2010PropOp31
 70
     1
102
RTVSPost2010Prop32
280
     0
102
RTVSPost2010PropOp32
 70
     1
102
RTVSPost2010Prop33
280
     0
102
RTVSPost2010PropOp33
 70
     1
102
RTVSPost2010Prop34
280
     0
102
RTVSPost2010PropOp34
 70
     1
102
RTVSPost2010Prop35
280
     0
102
RTVSPost2010PropOp35
 70
     1
102
RTVSPost2010Prop36
280
     0
102
RTVSPost2010PropOp36
 70
     1
102
RTVSPost2010Prop37
 90
       50
102
RTVSPost2010PropOp37
 70
     1
102
RTVSPost2010Prop38
140
0.0
102
RTVSPost2010PropOp38
 70
     1
102
RTVSPost2010Prop39
140
1.0
102
RTVSPost2010PropOp39
 70
     1
102
RTVSPost2010Prop40
 90
        0
102
RTVSPost2010PropOp40
 70
     1
102
RTVSPost2010Prop41ColorIndex
 90
       18
102
RTVSPost2010Prop41ColorRGB
 90
        0
102
RTVSPost2010PropOp41
 70
     1
102
RTVSPost2010Prop42
 90
       50
102
RTVSPost2010PropOp42
 70
     1
102
RTVSPost2010Prop43
 90
        3
102
RTVSPost2010PropOp43
 70
     1
102
RTVSPost2010Prop44ColorIndex
 90
        5
102
RTVSPost2010Prop44ColorRGB
 90
      255
102
RTVSPost2010PropOp44
 70
     1
102
RTVSPost2010Prop45
280
     0
102
RTVSPost2010PropOp45
 70
     1
102
RTVSPost2010Prop46
 90
       50
102
RTVSPost2010PropOp46
 70
     1
102
RTVSPost2010Prop47
 90
       50
102
RTVSPost2010PropOp47
 70
     1
102
RTVSPost2010Prop48
 90
       50
102
RTVSPost2010PropOp48
 70
     1
102
RTVSPost2010Prop49
280
     0
102
RTVSPost2010PropOp49
 70
     1
102
RTVSPost2010Prop50
 90
       50
102
RTVSPost2010PropOp50
 70
     1
102
RTVSPost2010Prop51ColorIndex
 90
      256
102
RTVSPost2010Prop51ColorRGB
 90
-16777216
102
RTVSPost2010PropOp51
 70
     0
102
RTVSPost2010Prop52
140
1.0
102
RTVSPost2010PropOp52
 70
     0
102
RTVSPost2010Prop53
 90
        2
102
RTVSPost2010PropOp53
 70
     1
102
RTVSPost2010Prop54
  1
strokes_ogs.tif
102
RTVSPost2010PropOp54
 70
     1
102
RTVSPost2010Prop55
280
     0
102
RTVSPost2010PropOp55
 70
     1
102
RTVSPost2010Prop56
140
1.0
102
RTVSPost2010PropOp56
 70
     1
102
RTVSPost2010Prop57
140
1.0
102
RTVSPost2010PropOp57
 70
     1
102
RTVSPropertyOp0
 70
     1
102
RTVSPropertyOp1
 70
     1
102
RTVSPropertyOp2
 70
     1
102
RTVSPropertyOp3
 70
     1
102
RTVSPropertyOp4
 70
     1
102
RTVSPropertyOp5
 70
     1
102
RTVSPropertyOp6
 70
     1
102
RTVSPropertyOp7
 70
     1
102
RTVSPropertyOp8
 70
     1
102
RTVSPropertyOp9
 70
     1
102
RTVSPropertyOp10
 70
     1
102
RTVSPropertyOp11
 70
     1
102
RTVSPropertyOp12
 70
     1
102
RTVSPropertyOp13
 70
     1
102
RTVSPropertyOp14
 70
     1
102
RTVSPropertyOp15
 70
     1
102
RTVSPropertyOp16
 70
     1
102
RTVSPropertyOp17
 70
     1
102
RTVSPropertyOp18
 70
     1
102
RTVSPropertyOp19
 70
     1
102
RTVSPropertyOp20
 70
     1
102
RTVSPropertyOp21
 70
     1
102
RTVSPropertyOp22
 70
     1
102
RTVSPropertyOp23
 70
     1
102
RTVSPropertyOp24
 70
     1
102
RTVSPropertyOp25
 70
     1
102
RTVSPropertyOp26
 70
     1
102
RTVSPropertyOp27
 70
     1
102
RTVSPropertyOp28
 70
     1
102
RTVSPropertyOp29
 70
     1
102
RTVSPropertyOp30
 70
     1
102
RTVSPropertyOp31
 70
     1
102
RTVSPropertyOp32
 70
     1
102
RTVSPropertyOp33
 70
     1
102
RTVSPropertyOp34
 70
     1
102
RTVSPropertyOp35
 70
     1
102
RTVSPropertyOp36
 70
     1
102
RTVSPropertyOp37
 70
     1
102
RTVSPropertyOp38
 70
     1
102
RTVSPropertyOp39
 70
     1
102
RTVSPropertyOp40
 70
     1
102
RTVSPropertyOp41
 70
     1
102
RTVSPropertyOp42
 70
     1
102
RTVSPropertyOp43
 70
     1
102
RTVSPropertyOp44
 70
     1
102
RTVSPropertyOp45
 70
     1
102
RTVSPropertyOp46
 70
     1
102
RTVSPropertyOp47
 70
     1
102
RTVSPropertyOp48
 70
     1
102
RTVSPropertyOp49
 70
     1
102
RTVSPropertyOp50
 70
     1
102
RTVSPropertyOp51
 70
     0
102
RTVSPropertyOp52
 70
     0
102
RTVSPropertyOp53
 70
     1
102
RTVSPropertyOp54
 70
     1
102
RTVSPropertyOp55
 70
     1
102
RTVSPropertyOp56
 70
     1
102
RTVSPropertyOp57
 70
     1
102
RTVSPropertyOp58
 70
     1
102
RTVSPropertyOp59
 70
     1
102
RTVSPropertyOp60
 70
     1
102
RTVSPropertyOp61
 70
     1
102
RTVSPropertyOp62
 70
     1
  0
XRECORD
  5
1441
102
{ACAD_REACTORS
330
1440
102
}
330
1440
100
AcDbXrecord
280
     1
102
RTVSPost2010Prop28
280
     0
102
RTVSPost2010PropOp28
 70
     1
102
RTVSPost2010Prop29
280
     1
102
RTVSPost2010PropOp29
 70
     1
102
RTVSPost2010Prop30
280
     1
102
RTVSPost2010PropOp30
 70
     1
102
RTVSPost2010Prop31
280
     0
102
RTVSPost2010PropOp31
 70
     1
102
RTVSPost2010Prop32
280
     0
102
RTVSPost2010PropOp32
 70
     1
102
RTVSPost2010Prop33
280
     0
102
RTVSPost2010PropOp33
 70
     1
102
RTVSPost2010Prop34
280
     0
102
RTVSPost2010PropOp34
 70
     1
102
RTVSPost2010Prop35
280
     0
102
RTVSPost2010PropOp35
 70
     1
102
RTVSPost2010Prop36
280
     0
102
RTVSPost2010PropOp36
 70
     1
102
RTVSPost2010Prop37
 90
       50
102
RTVSPost2010PropOp37
 70
     1
102
RTVSPost2010Prop38
140
0.0
102
RTVSPost2010PropOp38
 70
     1
102
RTVSPost2010Prop39
140
1.0
102
RTVSPost2010PropOp39
 70
     1
102
RTVSPost2010Prop40
 90
        0
102
RTVSPost2010PropOp40
 70
     1
102
RTVSPost2010Prop41ColorIndex
 90
       18
102
RTVSPost2010Prop41ColorRGB
 90
        0
102
RTVSPost2010PropOp41
 70
     1
102
RTVSPost2010Prop42
 90
       50
102
RTVSPost2010PropOp42
 70
     1
102
RTVSPost2010Prop43
 90
        3
102
RTVSPost2010PropOp43
 70
     1
102
RTVSPost2010Prop44ColorIndex
 90
        5
102
RTVSPost2010Prop44ColorRGB
 90
      255
102
RTVSPost2010PropOp44
 70
     1
102
RTVSPost2010Prop45
280
     0
102
RTVSPost2010PropOp45
 70
     1
102
RTVSPost2010Prop46
 90
       50
102
RTVSPost2010PropOp46
 70
     1
102
RTVSPost2010Prop47
 90
       50
102
RTVSPost2010PropOp47
 70
     1
102
RTVSPost2010Prop48
 90
       50
102
RTVSPost2010PropOp48
 70
     1
102
RTVSPost2010Prop49
280
     0
102
RTVSPost2010PropOp49
 70
     1
102
RTVSPost2010Prop50
 90
       50
102
RTVSPost2010PropOp50
 70
     1
102
RTVSPost2010Prop51ColorIndex
 90
      256
102
RTVSPost2010Prop51ColorRGB
 90
-16777216
102
RTVSPost2010PropOp51
 70
     0
102
RTVSPost2010Prop52
140
1.0
102
RTVSPost2010PropOp52
 70
     0
102
RTVSPost2010Prop53
 90
        2
102
RTVSPost2010PropOp53
 70
     1
102
RTVSPost2010Prop54
  1
strokes_ogs.tif
102
RTVSPost2010PropOp54
 70
     1
102
RTVSPost2010Prop55
280
     0
102
RTVSPost2010PropOp55
 70
     1
102
RTVSPost2010Prop56
140
1.0
102
RTVSPost2010PropOp56
 70
     1
102
RTVSPost2010Prop57
140
1.0
102
RTVSPost2010PropOp57
 70
     1
102
RTVSPropertyOp0
 70
     1
102
RTVSPropertyOp1
 70
     1
102
RTVSPropertyOp2
 70
     1
102
RTVSPropertyOp3
 70
     1
102
RTVSPropertyOp4
 70
     1
102
RTVSPropertyOp5
 70
     1
102
RTVSPropertyOp6
 70
     1
102
RTVSPropertyOp7
 70
     1
102
RTVSPropertyOp8
 70
     1
102
RTVSPropertyOp9
 70
     1
102
RTVSPropertyOp10
 70
     1
102
RTVSPropertyOp11
 70
     1
102
RTVSPropertyOp12
 70
     1
102
RTVSPropertyOp13
 70
     1
102
RTVSPropertyOp14
 70
     1
102
RTVSPropertyOp15
 70
     1
102
RTVSPropertyOp16
 70
     1
102
RTVSPropertyOp17
 70
     1
102
RTVSPropertyOp18
 70
     1
102
RTVSPropertyOp19
 70
     1
102
RTVSPropertyOp20
 70
     1
102
RTVSPropertyOp21
 70
     1
102
RTVSPropertyOp22
 70
     1
102
RTVSPropertyOp23
 70
     1
102
RTVSPropertyOp24
 70
     1
102
RTVSPropertyOp25
 70
     1
102
RTVSPropertyOp26
 70
     1
102
RTVSPropertyOp27
 70
     1
102
RTVSPropertyOp28
 70
     1
102
RTVSPropertyOp29
 70
     1
102
RTVSPropertyOp30
 70
     1
102
RTVSPropertyOp31
 70
     1
102
RTVSPropertyOp32
 70
     1
102
RTVSPropertyOp33
 70
     1
102
RTVSPropertyOp34
 70
     1
102
RTVSPropertyOp35
 70
     1
102
RTVSPropertyOp36
 70
     1
102
RTVSPropertyOp37
 70
     1
102
RTVSPropertyOp38
 70
     1
102
RTVSPropertyOp39
 70
     1
102
RTVSPropertyOp40
 70
     1
102
RTVSPropertyOp41
 70
     1
102
RTVSPropertyOp42
 70
     1
102
RTVSPropertyOp43
 70
     1
102
RTVSPropertyOp44
 70
     1
102
RTVSPropertyOp45
 70
     1
102
RTVSPropertyOp46
 70
     1
102
RTVSPropertyOp47
 70
     1
102
RTVSPropertyOp48
 70
     1
102
RTVSPropertyOp49
 70
     1
102
RTVSPropertyOp50
 70
     1
102
RTVSPropertyOp51
 70
     0
102
RTVSPropertyOp52
 70
     0
102
RTVSPropertyOp53
 70
     1
102
RTVSPropertyOp54
 70
     1
102
RTVSPropertyOp55
 70
     1
102
RTVSPropertyOp56
 70
     1
102
RTVSPropertyOp57
 70
     1
102
RTVSPropertyOp58
 70
     1
102
RTVSPropertyOp59
 70
     1
102
RTVSPropertyOp60
 70
     1
102
RTVSPropertyOp61
 70
     1
102
RTVSPropertyOp62
 70
     1
  0
XRECORD
  5
1431
102
{ACAD_REACTORS
330
1430
102
}
330
1430
100
AcDbXrecord
280
     1
102
RTVSPost2010Prop28
280
     0
102
RTVSPost2010PropOp28
 70
     1
102
RTVSPost2010Prop29
280
     1
102
RTVSPost2010PropOp29
 70
     1
102
RTVSPost2010Prop30
280
     1
102
RTVSPost2010PropOp30
 70
     1
102
RTVSPost2010Prop31
280
     0
102
RTVSPost2010PropOp31
 70
     1
102
RTVSPost2010Prop32
280
     0
102
RTVSPost2010PropOp32
 70
     1
102
RTVSPost2010Prop33
280
     0
102
RTVSPost2010PropOp33
 70
     1
102
RTVSPost2010Prop34
280
     0
102
RTVSPost2010PropOp34
 70
     1
102
RTVSPost2010Prop35
280
     0
102
RTVSPost2010PropOp35
 70
     1
102
RTVSPost2010Prop36
280
     0
102
RTVSPost2010PropOp36
 70
     1
102
RTVSPost2010Prop37
 90
       50
102
RTVSPost2010PropOp37
 70
     1
102
RTVSPost2010Prop38
140
0.0
102
RTVSPost2010PropOp38
 70
     1
102
RTVSPost2010Prop39
140
1.0
102
RTVSPost2010PropOp39
 70
     1
102
RTVSPost2010Prop40
 90
        0
102
RTVSPost2010PropOp40
 70
     1
102
RTVSPost2010Prop41ColorIndex
 90
       18
102
RTVSPost2010Prop41ColorRGB
 90
        0
102
RTVSPost2010PropOp41
 70
     1
102
RTVSPost2010Prop42
 90
       50
102
RTVSPost2010PropOp42
 70
     1
102
RTVSPost2010Prop43
 90
        3
102
RTVSPost2010PropOp43
 70
     1
102
RTVSPost2010Prop44ColorIndex
 90
        5
102
RTVSPost2010Prop44ColorRGB
 90
      255
102
RTVSPost2010PropOp44
 70
     1
102
RTVSPost2010Prop45
280
     0
102
RTVSPost2010PropOp45
 70
     1
102
RTVSPost2010Prop46
 90
       50
102
RTVSPost2010PropOp46
 70
     1
102
RTVSPost2010Prop47
 90
       50
102
RTVSPost2010PropOp47
 70
     1
102
RTVSPost2010Prop48
 90
       50
102
RTVSPost2010PropOp48
 70
     1
102
RTVSPost2010Prop49
280
     0
102
RTVSPost2010PropOp49
 70
     1
102
RTVSPost2010Prop50
 90
       50
102
RTVSPost2010PropOp50
 70
     1
102
RTVSPost2010Prop51ColorIndex
 90
      256
102
RTVSPost2010Prop51ColorRGB
 90
-16777216
102
RTVSPost2010PropOp51
 70
     0
102
RTVSPost2010Prop52
140
1.0
102
RTVSPost2010PropOp52
 70
     0
102
RTVSPost2010Prop53
 90
        2
102
RTVSPost2010PropOp53
 70
     1
102
RTVSPost2010Prop54
  1
strokes_ogs.tif
102
RTVSPost2010PropOp54
 70
     1
102
RTVSPost2010Prop55
280
     0
102
RTVSPost2010PropOp55
 70
     1
102
RTVSPost2010Prop56
140
1.0
102
RTVSPost2010PropOp56
 70
     1
102
RTVSPost2010Prop57
140
1.0
102
RTVSPost2010PropOp57
 70
     1
102
RTVSPropertyOp0
 70
     1
102
RTVSPropertyOp1
 70
     1
102
RTVSPropertyOp2
 70
     1
102
RTVSPropertyOp3
 70
     1
102
RTVSPropertyOp4
 70
     1
102
RTVSPropertyOp5
 70
     1
102
RTVSPropertyOp6
 70
     1
102
RTVSPropertyOp7
 70
     1
102
RTVSPropertyOp8
 70
     1
102
RTVSPropertyOp9
 70
     1
102
RTVSPropertyOp10
 70
     1
102
RTVSPropertyOp11
 70
     1
102
RTVSPropertyOp12
 70
     1
102
RTVSPropertyOp13
 70
     1
102
RTVSPropertyOp14
 70
     1
102
RTVSPropertyOp15
 70
     1
102
RTVSPropertyOp16
 70
     1
102
RTVSPropertyOp17
 70
     1
102
RTVSPropertyOp18
 70
     1
102
RTVSPropertyOp19
 70
     1
102
RTVSPropertyOp20
 70
     1
102
RTVSPropertyOp21
 70
     1
102
RTVSPropertyOp22
 70
     1
102
RTVSPropertyOp23
 70
     1
102
RTVSPropertyOp24
 70
     1
102
RTVSPropertyOp25
 70
     1
102
RTVSPropertyOp26
 70
     1
102
RTVSPropertyOp27
 70
     1
102
RTVSPropertyOp28
 70
     1
102
RTVSPropertyOp29
 70
     1
102
RTVSPropertyOp30
 70
     1
102
RTVSPropertyOp31
 70
     1
102
RTVSPropertyOp32
 70
     1
102
RTVSPropertyOp33
 70
     1
102
RTVSPropertyOp34
 70
     1
102
RTVSPropertyOp35
 70
     1
102
RTVSPropertyOp36
 70
     1
102
RTVSPropertyOp37
 70
     1
102
RTVSPropertyOp38
 70
     1
102
RTVSPropertyOp39
 70
     1
102
RTVSPropertyOp40
 70
     1
102
RTVSPropertyOp41
 70
     1
102
RTVSPropertyOp42
 70
     1
102
RTVSPropertyOp43
 70
     1
102
RTVSPropertyOp44
 70
     1
102
RTVSPropertyOp45
 70
     1
102
RTVSPropertyOp46
 70
     1
102
RTVSPropertyOp47
 70
     1
102
RTVSPropertyOp48
 70
     1
102
RTVSPropertyOp49
 70
     1
102
RTVSPropertyOp50
 70
     1
102
RTVSPropertyOp51
 70
     0
102
RTVSPropertyOp52
 70
     0
102
RTVSPropertyOp53
 70
     1
102
RTVSPropertyOp54
 70
     1
102
RTVSPropertyOp55
 70
     1
102
RTVSPropertyOp56
 70
     1
102
RTVSPropertyOp57
 70
     1
102
RTVSPropertyOp58
 70
     1
102
RTVSPropertyOp59
 70
     1
102
RTVSPropertyOp60
 70
     1
102
RTVSPropertyOp61
 70
     1
102
RTVSPropertyOp62
 70
     1
  0
XRECORD
  5
1425
102
{ACAD_REACTORS
330
1424
102
}
330
1424
100
AcDbXrecord
280
     1
102
RTVSPost2010Prop28
280
     0
102
RTVSPost2010PropOp28
 70
     1
102
RTVSPost2010Prop29
280
     1
102
RTVSPost2010PropOp29
 70
     1
102
RTVSPost2010Prop30
280
     1
102
RTVSPost2010PropOp30
 70
     1
102
RTVSPost2010Prop31
280
     0
102
RTVSPost2010PropOp31
 70
     1
102
RTVSPost2010Prop32
280
     0
102
RTVSPost2010PropOp32
 70
     1
102
RTVSPost2010Prop33
280
     0
102
RTVSPost2010PropOp33
 70
     1
102
RTVSPost2010Prop34
280
     0
102
RTVSPost2010PropOp34
 70
     1
102
RTVSPost2010Prop35
280
     0
102
RTVSPost2010PropOp35
 70
     1
102
RTVSPost2010Prop36
280
     0
102
RTVSPost2010PropOp36
 70
     1
102
RTVSPost2010Prop37
 90
       50
102
RTVSPost2010PropOp37
 70
     1
102
RTVSPost2010Prop38
140
0.0
102
RTVSPost2010PropOp38
 70
     1
102
RTVSPost2010Prop39
140
1.0
102
RTVSPost2010PropOp39
 70
     1
102
RTVSPost2010Prop40
 90
        0
102
RTVSPost2010PropOp40
 70
     1
102
RTVSPost2010Prop41ColorIndex
 90
       18
102
RTVSPost2010Prop41ColorRGB
 90
        0
102
RTVSPost2010PropOp41
 70
     1
102
RTVSPost2010Prop42
 90
       50
102
RTVSPost2010PropOp42
 70
     1
102
RTVSPost2010Prop43
 90
        3
102
RTVSPost2010PropOp43
 70
     1
102
RTVSPost2010Prop44ColorIndex
 90
        5
102
RTVSPost2010Prop44ColorRGB
 90
      255
102
RTVSPost2010PropOp44
 70
     1
102
RTVSPost2010Prop45
280
     0
102
RTVSPost2010PropOp45
 70
     1
102
RTVSPost2010Prop46
 90
       50
102
RTVSPost2010PropOp46
 70
     1
102
RTVSPost2010Prop47
 90
       50
102
RTVSPost2010PropOp47
 70
     1
102
RTVSPost2010Prop48
 90
       50
102
RTVSPost2010PropOp48
 70
     1
102
RTVSPost2010Prop49
280
     0
102
RTVSPost2010PropOp49
 70
     1
102
RTVSPost2010Prop50
 90
       50
102
RTVSPost2010PropOp50
 70
     1
102
RTVSPost2010Prop51ColorIndex
 90
      256
102
RTVSPost2010Prop51ColorRGB
 90
-16777216
102
RTVSPost2010PropOp51
 70
     0
102
RTVSPost2010Prop52
140
1.0
102
RTVSPost2010PropOp52
 70
     0
102
RTVSPost2010Prop53
 90
        2
102
RTVSPost2010PropOp53
 70
     1
102
RTVSPost2010Prop54
  1
strokes_ogs.tif
102
RTVSPost2010PropOp54
 70
     1
102
RTVSPost2010Prop55
280
     0
102
RTVSPost2010PropOp55
 70
     1
102
RTVSPost2010Prop56
140
1.0
102
RTVSPost2010PropOp56
 70
     1
102
RTVSPost2010Prop57
140
1.0
102
RTVSPost2010PropOp57
 70
     1
102
RTVSPropertyOp0
 70
     1
102
RTVSPropertyOp1
 70
     1
102
RTVSPropertyOp2
 70
     1
102
RTVSPropertyOp3
 70
     1
102
RTVSPropertyOp4
 70
     1
102
RTVSPropertyOp5
 70
     1
102
RTVSPropertyOp6
 70
     1
102
RTVSPropertyOp7
 70
     1
102
RTVSPropertyOp8
 70
     1
102
RTVSPropertyOp9
 70
     1
102
RTVSPropertyOp10
 70
     1
102
RTVSPropertyOp11
 70
     1
102
RTVSPropertyOp12
 70
     1
102
RTVSPropertyOp13
 70
     1
102
RTVSPropertyOp14
 70
     1
102
RTVSPropertyOp15
 70
     1
102
RTVSPropertyOp16
 70
     1
102
RTVSPropertyOp17
 70
     1
102
RTVSPropertyOp18
 70
     1
102
RTVSPropertyOp19
 70
     1
102
RTVSPropertyOp20
 70
     1
102
RTVSPropertyOp21
 70
     1
102
RTVSPropertyOp22
 70
     1
102
RTVSPropertyOp23
 70
     1
102
RTVSPropertyOp24
 70
     1
102
RTVSPropertyOp25
 70
     1
102
RTVSPropertyOp26
 70
     1
102
RTVSPropertyOp27
 70
     1
102
RTVSPropertyOp28
 70
     1
102
RTVSPropertyOp29
 70
     1
102
RTVSPropertyOp30
 70
     1
102
RTVSPropertyOp31
 70
     1
102
RTVSPropertyOp32
 70
     1
102
RTVSPropertyOp33
 70
     1
102
RTVSPropertyOp34
 70
     1
102
RTVSPropertyOp35
 70
     1
102
RTVSPropertyOp36
 70
     1
102
RTVSPropertyOp37
 70
     1
102
RTVSPropertyOp38
 70
     1
102
RTVSPropertyOp39
 70
     1
102
RTVSPropertyOp40
 70
     1
102
RTVSPropertyOp41
 70
     1
102
RTVSPropertyOp42
 70
     1
102
RTVSPropertyOp43
 70
     1
102
RTVSPropertyOp44
 70
     1
102
RTVSPropertyOp45
 70
     1
102
RTVSPropertyOp46
 70
     1
102
RTVSPropertyOp47
 70
     1
102
RTVSPropertyOp48
 70
     1
102
RTVSPropertyOp49
 70
     1
102
RTVSPropertyOp50
 70
     1
102
RTVSPropertyOp51
 70
     0
102
RTVSPropertyOp52
 70
     0
102
RTVSPropertyOp53
 70
     1
102
RTVSPropertyOp54
 70
     1
102
RTVSPropertyOp55
 70
     1
102
RTVSPropertyOp56
 70
     1
102
RTVSPropertyOp57
 70
     1
102
RTVSPropertyOp58
 70
     1
102
RTVSPropertyOp59
 70
     1
102
RTVSPropertyOp60
 70
     1
102
RTVSPropertyOp61
 70
     1
102
RTVSPropertyOp62
 70
     1
  0
XRECORD
  5
1443
102
{ACAD_REACTORS
330
1442
102
}
330
1442
100
AcDbXrecord
280
     1
102
RTVSPost2010Prop28
280
     0
102
RTVSPost2010PropOp28
 70
     1
102
RTVSPost2010Prop29
280
     1
102
RTVSPost2010PropOp29
 70
     1
102
RTVSPost2010Prop30
280
     1
102
RTVSPost2010PropOp30
 70
     1
102
RTVSPost2010Prop31
280
     0
102
RTVSPost2010PropOp31
 70
     1
102
RTVSPost2010Prop32
280
     0
102
RTVSPost2010PropOp32
 70
     1
102
RTVSPost2010Prop33
280
     0
102
RTVSPost2010PropOp33
 70
     1
102
RTVSPost2010Prop34
280
     0
102
RTVSPost2010PropOp34
 70
     1
102
RTVSPost2010Prop35
280
     0
102
RTVSPost2010PropOp35
 70
     1
102
RTVSPost2010Prop36
280
     0
102
RTVSPost2010PropOp36
 70
     1
102
RTVSPost2010Prop37
 90
       50
102
RTVSPost2010PropOp37
 70
     1
102
RTVSPost2010Prop38
140
0.0
102
RTVSPost2010PropOp38
 70
     1
102
RTVSPost2010Prop39
140
1.0
102
RTVSPost2010PropOp39
 70
     1
102
RTVSPost2010Prop40
 90
        0
102
RTVSPost2010PropOp40
 70
     1
102
RTVSPost2010Prop41ColorIndex
 90
       18
102
RTVSPost2010Prop41ColorRGB
 90
        0
102
RTVSPost2010PropOp41
 70
     1
102
RTVSPost2010Prop42
 90
       50
102
RTVSPost2010PropOp42
 70
     1
102
RTVSPost2010Prop43
 90
        3
102
RTVSPost2010PropOp43
 70
     1
102
RTVSPost2010Prop44ColorIndex
 90
        5
102
RTVSPost2010Prop44ColorRGB
 90
      255
102
RTVSPost2010PropOp44
 70
     1
102
RTVSPost2010Prop45
280
     0
102
RTVSPost2010PropOp45
 70
     1
102
RTVSPost2010Prop46
 90
       50
102
RTVSPost2010PropOp46
 70
     1
102
RTVSPost2010Prop47
 90
       50
102
RTVSPost2010PropOp47
 70
     1
102
RTVSPost2010Prop48
 90
       50
102
RTVSPost2010PropOp48
 70
     1
102
RTVSPost2010Prop49
280
     0
102
RTVSPost2010PropOp49
 70
     1
102
RTVSPost2010Prop50
 90
       50
102
RTVSPost2010PropOp50
 70
     1
102
RTVSPost2010Prop51ColorIndex
 90
      256
102
RTVSPost2010Prop51ColorRGB
 90
-16777216
102
RTVSPost2010PropOp51
 70
     0
102
RTVSPost2010Prop52
140
1.0
102
RTVSPost2010PropOp52
 70
     0
102
RTVSPost2010Prop53
 90
        2
102
RTVSPost2010PropOp53
 70
     1
102
RTVSPost2010Prop54
  1
strokes_ogs.tif
102
RTVSPost2010PropOp54
 70
     1
102
RTVSPost2010Prop55
280
     0
102
RTVSPost2010PropOp55
 70
     1
102
RTVSPost2010Prop56
140
1.0
102
RTVSPost2010PropOp56
 70
     1
102
RTVSPost2010Prop57
140
1.0
102
RTVSPost2010PropOp57
 70
     1
102
RTVSPropertyOp0
 70
     1
102
RTVSPropertyOp1
 70
     1
102
RTVSPropertyOp2
 70
     1
102
RTVSPropertyOp3
 70
     1
102
RTVSPropertyOp4
 70
     1
102
RTVSPropertyOp5
 70
     1
102
RTVSPropertyOp6
 70
     1
102
RTVSPropertyOp7
 70
     1
102
RTVSPropertyOp8
 70
     1
102
RTVSPropertyOp9
 70
     1
102
RTVSPropertyOp10
 70
     1
102
RTVSPropertyOp11
 70
     1
102
RTVSPropertyOp12
 70
     1
102
RTVSPropertyOp13
 70
     1
102
RTVSPropertyOp14
 70
     1
102
RTVSPropertyOp15
 70
     1
102
RTVSPropertyOp16
 70
     1
102
RTVSPropertyOp17
 70
     1
102
RTVSPropertyOp18
 70
     1
102
RTVSPropertyOp19
 70
     1
102
RTVSPropertyOp20
 70
     1
102
RTVSPropertyOp21
 70
     1
102
RTVSPropertyOp22
 70
     1
102
RTVSPropertyOp23
 70
     1
102
RTVSPropertyOp24
 70
     1
102
RTVSPropertyOp25
 70
     1
102
RTVSPropertyOp26
 70
     1
102
RTVSPropertyOp27
 70
     1
102
RTVSPropertyOp28
 70
     1
102
RTVSPropertyOp29
 70
     1
102
RTVSPropertyOp30
 70
     1
102
RTVSPropertyOp31
 70
     1
102
RTVSPropertyOp32
 70
     1
102
RTVSPropertyOp33
 70
     1
102
RTVSPropertyOp34
 70
     1
102
RTVSPropertyOp35
 70
     1
102
RTVSPropertyOp36
 70
     1
102
RTVSPropertyOp37
 70
     1
102
RTVSPropertyOp38
 70
     1
102
RTVSPropertyOp39
 70
     1
102
RTVSPropertyOp40
 70
     1
102
RTVSPropertyOp41
 70
     1
102
RTVSPropertyOp42
 70
     1
102
RTVSPropertyOp43
 70
     1
102
RTVSPropertyOp44
 70
     1
102
RTVSPropertyOp45
 70
     1
102
RTVSPropertyOp46
 70
     1
102
RTVSPropertyOp47
 70
     1
102
RTVSPropertyOp48
 70
     1
102
RTVSPropertyOp49
 70
     1
102
RTVSPropertyOp50
 70
     1
102
RTVSPropertyOp51
 70
     0
102
RTVSPropertyOp52
 70
     0
102
RTVSPropertyOp53
 70
     1
102
RTVSPropertyOp54
 70
     1
102
RTVSPropertyOp55
 70
     1
102
RTVSPropertyOp56
 70
     1
102
RTVSPropertyOp57
 70
     1
102
RTVSPropertyOp58
 70
     1
102
RTVSPropertyOp59
 70
     1
102
RTVSPropertyOp60
 70
     1
102
RTVSPropertyOp61
 70
     1
102
RTVSPropertyOp62
 70
     1
  0
ENDSEC
  0
EOF
